Maximo Park - Coast Is Always Changing Chords & Tabs

 

Coast Is Always Changing Chords & Tabs

Maximo Park Chords & Tabs

Version: 1 Type: Tab 0 ratings
1 star 2 stars 3 stars 4 stars 5 stars
comments

Coast Is Always Changing Tab

Artist- Maximo Park
Song- The Coast Is Always Changing
Tabbed By James Jefferys

Intro
[ Tab from: http://www.guitartabs.cc/tabs/m/maximo_park/coast_is_always_changing_tab.html ]
e-------------------------------------------|
B-------------------------------------------|
G-------------------------------------------|
D----------------------------6-6-5--5-5-5---|
E------8-8-6---6-6-6-5---5-5--------------8-|
A--6-6--------------------------------------|

e-------------------------------------------|
B-------------------------------------------|
G-------------------------------------------|
D----------------------------6-6-5--5-5-5---|
E------8-8-6---6-6-6-5---5-5--------------8-|
A--6-6--------------------------------------|


I'm pretty sure that that's correct :-)
Comments