Maximo Park - Coast Is Always Changing Chords & Tabs

 

Coast Is Always Changing Chords & Tabs

Maximo Park Chords & Tabs

Version: 2 Type: Bass Tab 0 ratings
1 star 2 stars 3 stars 4 stars 5 stars
comments

Coast Is Always Changing Bass Tab

   
-------------------------------------------------------------------------------
			     The Coast Is Always Changing - Maximo Park
-------------------------------------------------------------------------------

Tabbed By : imessyou
e-mail: theblochead@hotmail.co.uk

Tuning: standard EADG

Intro
G|------------------|----9-9-8--8-8-8-6|
D|----9-9-7--7-7-7-6|7-7---------------|
A|7-7---------------|------------------|
E|------------------|------------------|

Intro/Verse
G|-------------------------|9-9-9-8--8-8-------------|
D|------9--9-9-6-6-6-9--9-9|-------------9-9-9-7--7-7|
A|7-7-7--------------------|-------------------------|
E|-------------------------|-------------------------|

Verse
"I've met so many people who look the same..."
G|------------6-6-6-------|9-9-9-8--8-8-------------|
D|6-6-6-------------9--9-9|-------------9-9-9-7--7-7|
A|------9--9-9------------|-------------------------|
E|------------------------|-------------------------|

"Most of the time I don't care..."
G|-------------------------|9-9-9-8--8-8-------------|
D|------9--9-9-6-6-6-9--9-9|-------------9-9-9-7--7-7|
A|7-7-7--------------------|-------------------------|
E|-------------------------|-------------------------|

"And it saddens me to say..."
G|------------6-6-6-------|9-9-9-8--8-8-------------|
D|6-6-6-------------9--9-9|-------------9--7--9--5--|
A|------9--9-9------------|-------------------------|
E|------------------------|-------------------------|

Pre Chorus
"I am young and I am lost..."
G|---------------|-------------|------------------|
D|---------------|-------------|------------------|
A|7-7-6-6-4-4----|4-4----4-4---|------------------|
E|------------7-7|----7-7---4-4|5-5--5-5--5-5--5-5|X2

G|------------------|-------------------|--------|
D|------------------|-------------------|--------|
A|--7-9-9--------7-7|--7-9-9---------7-7|--7-----|
E|9---------9-9-----|9---------9-9------|9-------|

Chorus
"We look out upon the sea..."
G|---------------|---------------|---------------|---------------|
D|---------------|---------------|9-9-9-9-9-9-9-9|9-9-9-9-9-9-9-9|
A|9-9-9-9-9-9-9-9|---------------|---------------|---------------|
E|---------------|9-9-9-9-9-9-9-9|---------------|---------------|X2

Verse
G|-------------------------|9-9-9-8--8-8-------------|
D|------9--9-9-6-6-6-9--9-9|-------------9-9-9-7--7-7|
A|7-7-7--------------------|-------------------------|
E|-------------------------|-------------------------|

Verse
"Age makes no difference till you open your mouth..."
G|------------6-6-6-------|9-9-9-8--8-8-------------|
D|6-6-6-------------9--9-9|-------------9-9-9-7--7-7|
A|------9--9-9------------|-------------------------|
E|------------------------|-------------------------|

"I know that you can't understand..."
G|-------------------------|9-9-9-8--8-8-------------|
D|------9--9-9-6-6-6-9--9-9|-------------9-9-9-7--7-7|
A|7-7-7--------------------|-------------------------|
E|-------------------------|-------------------------|

"And so it saddens me to say..."
G|------------6-6-6-------|9-9-9-8--8-8-------------|
D|6-6-6-------------9--9-9|-------------9--7--9--5--|
A|------9--9-9------------|-------------------------|
E|------------------------|-------------------------|
[ Tab from: http://www.guitartabs.cc/tabs/m/maximo_park/coast_is_always_changing_btab_ver_2.html ]
Pre Chorus
"I am young and I am lost..."
G|---------------|-------------|------------------|
D|---------------|-------------|------------------|
A|7-7-6-6-4-4----|4-4----4-4---|------------------|
E|------------7-7|----7-7---4-4|5-5--5-5--5-5--5-5|X2

G|------------------|-------------------|--------|
D|------------------|-------------------|--------|
A|--7-9-9--------7-7|--7-9-9---------7-7|--7-----|
E|9---------9-9-----|9---------9-9------|9-------|

Chorus
"We look out upon the sea..."
G|---------------|---------------|---------------|---------------|
D|---------------|---------------|9-9-9-9-9-9-9-9|9-9-9-9-9-9-9-9|
A|9-9-9-9-9-9-9-9|---------------|---------------|---------------|
E|---------------|9-9-9-9-9-9-9-9|---------------|---------------|X2

Bridge
G|------------------|----9-9-8--8-8-8-6|------|
D|----9-9-7--7-7-7-6|7-7---------------|------|
A|7-7---------------|------------------|4-5-6-|
E|------------------|------------------|------|

"It won't be long, before you're gone..."
G|----------------------|----------------------|----------------------|----------------------|
D|----------------------|----------------------|----------------------|----------------------|
A|7--7--7--7--9--9--9--9|----------------------|7--7--7--7--9--9--9--9|----------------------|
E|----------------------|7--7--7--7--9--9--9--9|----------------------|7--7--7--7--9--9--9--9|

"It won't be long, before you're gone..."
G|-----|---------------|---------------|---------------|---------------|
D|-----|---------------|---------------|---------------|---------------|
A|4-5-6|7-7-7-7-7-7-7-7|9-9-9-9-9-9-9-9|---------------|---------------|
E|-----|---------------|---------------|7-7-7-7-7-7-7-7|9-9-9-9-9-9-9-9|

"It won't be long, before you're gone..."
G|---------------|---------------|---------------|---------------|
D|---------------|---------------|---------------|---------------|
A|7-7-7-7-7-7-7-7|9-9-9-9-9-9-9-9|---------------|---------------|
E|---------------|---------------|7-7-7-7-7-7-7-7|9-9-9-9-9-9-9-9|

Pre Chorus
G|------------------|-------------------|--------|
D|------------------|-------------------|--------|
A|--7-9-9--------7-7|--7-9-9---------7-7|--7-----|
E|9---------9-9-----|9---------9-9------|9-------|

Chorus
"We look out upon the sea..."
G|---------------|---------------|---------------|---------------|
D|---------------|---------------|9-9-9-9-9-9-9-9|9-9-9-9-9-9-9-9|
A|9-9-9-9-9-9-9-9|---------------|---------------|---------------|
E|---------------|9-9-9-9-9-9-9-9|---------------|---------------|X4

Ending
G|------------6-6-6-------|9-9-9-8--8-8-------------|
D|6-6-6-------------9--9-9|-------------9-9-9-7--7-7|
A|------9--9-9------------|-------------------------|
E|------------------------|-------------------------|

"And though it saddens me to say..."
G|------------6-6-6-------|9-9-9-8--8-8-------------|
D|6-6-6-------------9--9-9|-------------9--7--9--5--|
A|------9--9-9------------|-------------------------|
E|------------------------|-------------------------|

Top tune. Rate it please


| /  slide up
| \  slide down
| h  hammer-on
| p  pull-off
| ~  vibrato
| +  harmonic
| x  Mute note
===============================================================================
Comments