Maximo Park - Coast Is Always Changing Chords & Tabs

 

Coast Is Always Changing Chords & Tabs

Maximo Park Chords & Tabs

Version: 1 Type: Bass Tab 0 ratings
1 star 2 stars 3 stars 4 stars 5 stars
comments

Coast Is Always Changing Bass Tab

   
-------------------------------------------------------------------------------
			    The Coast is Always Changing - Maximo Park
-------------------------------------------------------------------------------

Tabbed By : Milly
e-mail: lushhhhh@hotmail.com

Tuning: Standard Tuning

Intro 
G|------------------------------------------| Repeat x 2
D|---------------------------2-2-0---0-0----|
A|------2-2-0---0-0------0-0-------4-----4--|
E|--0-0-------4-----4-----------------------|


Verse (comes in at 0.10) 
G|----------------------------------------------------------------|
D|------------------------------2-2-2-1-1-1-1---------------------|
A|--------2-2-2-2-------2-2-2-2---------------2-2-2--0-0-0-0------| 
E|--0-0-0---------4-4-4-------------------------------------------|

G|----------------------------------------------------------------|
D|---------------------------------2-2-2-1-1-1-1------------------|
A|------------------4-4-4--2-2-2-2---------------2-2-2--0-0-0-0---|
E|--4-4-4--2-2-2-2------------------------------------------------|

G|----------------------------------------------------------------|
D|------------------------------2-2-2-1-1-1-1---------------------|
A|--------2-2-2-2-------2-2-2-2---------------2-2-2--0-0-0-0------|
E|--0-0-0---------4-4-4-------------------------------------------|
[ Tab from: http://www.guitartabs.cc/tabs/m/maximo_park/coast_is_always_changing_btab.html ]
G|----------------------------------------------------------------|
D|---------------------------------2-2-2-1-1-1-1------------------|
A|------------------4-4-4--2-2-2-2---------------2-0-2-0----------|
E|--4-4-4--2-2-2-2------------------------------------------------|


I am young and I am lost...
G|----------------------------------------| Repeat twice
D|-2-1-----2-1-2--------------------------|
A|-----4-2-------2---4--2--4--2-----------|
E|----------------------------------------|

Chorus
G|---------------------------------------------------------------------------|
D|---------------------------------------------------------------------------|
A|--4-4-4-4-4-4-4-4-----------------2-2-2-2-2-2-2-2-2-2-2-2-2-2-2-2----------|
E|------------------4-4-4-4-4-4-4-4------------------------------------------|


It won't be long before you've gone...
G|---------------------------------------------------------------------------|
D|----0-1-2--2-2-2-4-4-4-4-----------------2-2-2-2-4-4-4-4---------2-2-2-2---|  Rpt
A|--4----------------------2-2-2-2-4-4-4-4------------------2-2-2-2----------|    x2
E|---------------------------------------------------------------------------|

Play intro at the end

Any comments or corrections feel free to email me. Enjoy

| /  slide up
| \  slide down
| h  hammer-on
| p  pull-off
| ~  vibrato
| +  harmonic
| x  Mute note
===============================================================================
Comments