Mattson A L - South Shore Chords & Tabs

 

South Shore Chords & Tabs

Mattson A L Chords & Tabs

Version: 1 Type: Tab 0 ratings
1 star 2 stars 3 stars 4 stars 5 stars
comments

South Shore Tab

   
-------------------------------------------------------------------------------
			South Shore- A.L.Mattson
-------------------------------------------------------------------------------
Tabbed by:L Tuska		
Email:l97e52e20@yahoo.com

Tuning:Drop-D



e|---------------------------------------------------------------------------|
B|---------------------------------------------------------------------------|
G|-------------0-------------(5)-------------------0-------------(5)---------|
D|-----0---3^v-----------5-------5---5-----0---3^v-----------5-------5---5---|
A|-oh5---0-------3/5---3-----------3---0h5---0-------3/5---3-----------3-----|
D|-------------------0-----0-----------------------------0-----0-------------|

e|---------------------------------------------------------------------------|
B|---------------------------------------------------------------------------|
G|-------------0-------------(5)---------------------------------(5)---------|
D|-----0---3^v-----------5-------5---5-----0-------0-3/5-----5---------------|
A|-0h5---0-------3/5---3-----------3---0h5---0-3^v---------3-----------------|
D|-------------------0-----0-----------------------------0-----0-------------|

e|---------------------------------------------------------------------------|
B|---------------------------------------------------------------------------|
G|---------------(5)-------------------------------(12)-----(7)--------------|
D|-5---5-----5---------0-----5-----4-----3-----0-------------------0---------|
A|---3-----3---------0-----0-----0-----0-----0------------0------0-----------|
D|-------0-----0---------5-----4-----3-----0-----0------0------0-----0-------|

e|---------------------------------------------------------------------------|
B|---------------------------------------------------------------------------|
G|---------------------------(12)--------------------------------------------|
D|-----5-----4-----3-----0------------(7)-----0-------5-----4-----3-----0----|
A|---0-----0-----0-----0------------0-------0-------0-----0-----0-----0------|
D|-5-----4-----3-----0-----0------0-------0-----0-5-----4-----3-----0-----0--|

e|---------------------------------------------------------------------------|
B|---------------------------------------------------------------------------|
G|---(12)-----(7)-----------(12)-----(7)---------(12)-----(7)-----------(12)-|
D|--------------------(7)--------------------0--------------------(7)--------|
A|----------0-------0--------------0-------0------------0-------0------------|
D|-0------0-------0-------0------0-------0-----0------0-------0-------0------|
[ Tab from: http://www.guitartabs.cc/tabs/m/mattson_a_l/south_shore_tab.html ]
e|---------------------------------------------------------------------------|
B|---------------------------------------------------------------------------|
G|---------------------------------------------------------------------------|
D|-----(7)-----0-------5-----4-----3-------------5h7-------------5h7---------|
A|---0-------0-------0-----0-----0---------4h5h7-----------4h5h7-------------|
D|-0-------0-----0-5-----4-----3-----0h5h7-----------0h5h7-------------------|

e|---------------------------------------------------------[-----------------|
B|---------------------------------------------------------[-----------------|Play section
G|---------5---------------5---------------5---------------[5h7p5------------|inclosed in
D|-----7-----7---0-----7-----7---0-----7-----7---0-----7---[0-----0h7-----7--|[ brackets ]
A|---0---------0-----0---------0-----0---------0-----0---0-[------------0----|2 times.
D|-0-----0---------0-----0---------0-----0---------0-------[----------0------|

e|-------------------------------------------]-------------------------------|
B|-------------------------------------------]-------------------------------|
G|-----------------5h7p5---------5-----------]---5h7p55~~/7~~----7~~----7~~/-|
D|-----7-----7-----0-----0h7-----7-----7----7]---0---00---0------0------0----|
A|---0-----0-----0-------------0-----0----0--]----------------0------0-------|
D|-0-----0-----0-------------0-----0----0----]-0------------0------0---------|

e|---------------------------------------------------------------------------|
B|---------------------------------------------------------------------------|
G|-9~~----9~~-----9~~-/12~~-----12~~-----12~~11~~-----11~~-----11~~---------|
D|-0------0-------0----0--------0--------0----0--------0--------0------------|
A|------0-------0-------------0--------0-------------0--------0--------------|
D|----0-------0-------------0--------0-------------0--------0----------------|

e|---------------------------------------------------------------------------|
B|---------------------------------------------------------------------------|
G|-11~~--9~~-7~~-5~~/7~~----7~~----7~~/11~~-9~~-7~~-5~~-7~~----7~~----7~~----|
D|-0-----0---0---0---0------0------0---0----0---0---0---0------0------0------|
A|-----0---0---0----------0------0--------0---0---0---0------0------0--------|
D|-----0---0---0--------0------0----------0---0---0---0----0------0----------|

e|-----------5-5-x-x-x-3--x-x-x-x-----5--------------------------------------|
B|-----------5-5-x-x-x-3--x-x-x-x-----3--------------------------------------|
G|---x-------7-7-x-x-x-5--x-x-x-x-----2--------------------------------------|
D|---x-------7-7-x-x-x-5--x-x-x-x-0-0-0--------------------------------------|
A|-0-x-----0-5-5-x-x-x-3--x-x-x-x-0-0-0--------------------------------------|
D|-0-x-11-0-5-5-x-x-x-3--x-x-x-x-0-0-0--------------------------------------|





  v  bend down
  ^  Bend up 
| /  slide up
|   slide down
| h  hammer-on
| p  pull-off
| ~  vibrato
| +  harmonic
| x  Mute note
===============================================================================


Comments