Matthews Dave - The Stone - Intro Chords & Tabs

 

The Stone - Intro Chords & Tabs

Matthews Dave Chords & Tabs

Version: 1 Type: Tab 0 ratings
1 star 2 stars 3 stars 4 stars 5 stars
comments

The Stone - Intro Tab

##################################################################################
# This file is the author's own work and represents their interpretation of the  #
# song. You may only use this file for private study, scholarship, or research.  #
##################################################################################

The Stone - Dave Matthews



Intro

|--------------------------|
|--------------------------|
|-------2------------------|    
|----------3---55--2-3-2---| 
|---5----------------------|
|--------------------------|


 I've this creeping ...
[ Tab from: http://www.guitartabs.cc/tabs/m/matthews_dave/the_stone_intro_tab.html ]
|----------------------------x------------------------------------------------|
|----------------------------x------------------------------------------------|
|-------2--------------------3-----------------2---------------0--------------|    
|----------3---55--2-3-2-----x---55--2-3-2-----------------2------2-----------|   Verse
|---5------------------------1--------------5------4/3--1------------3--0-----|
|----------------------------3------------------------------------------------|


 I was just Wondering    ...    But if not i'll go

|------------------------------------------------------------|
|------------------------------------------------------------|
|-----5-----5---5---5----------------------------------------|    Chorus
|-----3-----2--------------------------------------------|    
|---------------5---3---------------7-----5-----8--------|
|--------------------------------5-----8-----6---------------|
 
Comments