Matthews Dave - Some Devil Chords & Tabs

 

Some Devil Chords & Tabs

Matthews Dave Chords & Tabs

Version: 1 Type: Tab 0 ratings
1 star 2 stars 3 stars 4 stars 5 stars
comments

Some Devil Tab

Some Devil
Dave Matthews
Some Devil
Tabbed By Louis Sedia
DMBojangles41@yahoo.com

[ Tab from: http://www.guitartabs.cc/tabs/m/matthews_dave/some_devil_tab.html ]
Verse
e-----------------------------------------
B-----------------------------------------
G--7/8--7/8---6--6--4---------------------
D--9----9-----7--7--6----------5-----7----
A----------------------------5-----7------
E---------------------(0)--3-----5--------

Chorus
e------------------------------------------------
B------------------------------------------------
G------7-----(5)--------4--------2---------------
D----7-------(5)-----4--------2--------0---------
A--5------4-------2--------0---------------------
E----------------------------------3~~~-----(5)--

Comments