Matthews Dave - So Damn Lucky Chords & Tabs

 

So Damn Lucky Chords & Tabs

Matthews Dave Chords & Tabs

Version: 1 Type: Tab 0 ratings
1 star 2 stars 3 stars 4 stars 5 stars
comments

So Damn Lucky Tab

#-----------------------------PLEASE NOTE-----------------------------------------#
#The following file is the author's own work and represents their interpretation  #
#of the song. You may only use this file for private study, scholarship, or       #
#research. Remember to view this file in Courier, or some other monospaced        #
#font                                                                             #
#---------------------------------------------------------------------------------#


"So Damn Lucky" by Dave Matthews
Transcribed by Adam Hanley


Intro/Verse:
[ Tab from: http://www.guitartabs.cc/tabs/m/matthews_dave/so_damn_lucky_tab.html ]
e|---------------------------|r|---------------------------|r|
b|---------------------------|e|---------------------------|e|
g|--9h11--11--9-11--9-11--9--|p|--9h11--11--9-11--9-11--9--|p|
d|--9-----9---9-9---9-9---9--|e|--9h11--11--9-11--9-11--9--|e|
a|--9h11--11--9-11--9-11--9--|a|--0------------------------|a|
E|--0------------------------|t|---------------------------|t|


Chorus:

e|-----|-----------|-----------|-----------|--0--|
b|-(3)-|-----------|----(3)-0--|--8--3--1--|--2--|
g|--2--|--7--6--4--|--4--2--0--|--7--0--0--|--2--|
d|--0--|--0--0--0--|--0--0--2--|--5--4--2--|--2--|
a|-----|-----------|--------2--|--7--5--3--|--0--|
E|--2--|--7--5--3--|--3--2--0--|--0--------|-----|

e|-----|-----------|-----------|-----------|--0--|
b|--0--|-----------|----(3)-0--|--8--3--1--|--2--|
g|--0--|--7--6--4--|--4--2--0--|--7--0--0--|--2--|
d|--2--|--0--0--0--|--0--0--2--|--5--4--2--|--2--|
a|--2--|-----------|--------2--|--7--5--3--|--0--|
E|--0--|--7--5--3--|--3--2--0--|--0--------|-----|


"I'm dizzy from all this spinning..".. just play a low open E


Questions Comments - AdWolf16@aol.com; visit my DMB Midi site, www.angelfire.com/music4/dmbmidis/
Comments