Matthews Dave - So Damn Lucky Correct Chords & Tabs

 

So Damn Lucky Correct Chords & Tabs

Matthews Dave Chords & Tabs

Version: 1 Type: Tab 0 ratings
1 star 2 stars 3 stars 4 stars 5 stars
comments

So Damn Lucky Correct Tab

intro/verse
-x-x-------x-x-
-x-x-------x-x-
-9h11------9h11
-9-9-------9h11
-9h11------0-0-
-0-0-----------


chorus
-x-----x-x-x--x-x---x-0-0--0
-x-----x-x-x--x-x---8-3-1--2
-2-----7-6-4--2-0---7-0-0--2
-0-----0-0-0--0-2---5-4-2--2
-x-----x-x-x--x-2---x-5-3--0
-2-----7-5-3--2-0---7-x-x---
[ Tab from: http://www.guitartabs.cc/tabs/m/matthews_dave/so_damn_lucky_correct_tab.html ]
-x-----x-x-x--x-x---x-0-0--0
-x-----x-x-x--x-x---8-3-1--2
-0-----7-6-4--2-0---7-0-0--2
-2-----0-0-0--0-2---5-4-2--2
-2-----x-x-x--x-2---x-5-3--0
-0-----7-5-3--2-0---7-x-x---

sorry i didnt finish the last tab.  this is about 99.9% correct.  
i tabbed it out when i watched him play it on mtv.  
listen to song for timing. 

word
Comments