Matthews Dave - Oh Chords & Tabs

 

Oh Chords & Tabs

Matthews Dave Chords & Tabs

Version: 1 Type: Tab 0 ratings
1 star 2 stars 3 stars 4 stars 5 stars
comments

Oh Tab

Oh
Dave Matthews
Some Devil
Tabbed By Louis Sedia
DMBojangles41@yahoo.com


Intro/Outro
[ Tab from: http://www.guitartabs.cc/tabs/m/matthews_dave/oh_tab.html ]
e------0----/5----2--(2)------2-----------------------
B------0----/5----3--------3--3----4p2----------------
G----1-----(/5)----------2--------------4p2---0-------
D--2----------------------------------------------2---
A-----------------------------------------------------
E-----------------------------------------------------


Verse
e-------------------------------------
B--10-10--x--10----10--10--x---10-----
G---9--9--x---9-----9---9--x----9-----
D---7--7--x---x-----7---7--x----9-----
A---------x---9------------x----------
E-------------------------------------


Chorus
e---------------
B--10-----10----
G---9------9----
D---7------x----
A----------9----
E---------------

Comments