Matthews Dave - Help Myself Chords & Tabs

 

Help Myself Chords & Tabs

Matthews Dave Chords & Tabs

Version: 1 Type: Tab 0 ratings
1 star 2 stars 3 stars 4 stars 5 stars
comments

Help Myself Tab

This is the song that you heard at the Central Park concert and was like holy cr*p that's a great song.
This is tabbed from the Hartford show (8/6/99)

Dave Matthews Band
Help Myself

Intro/Transition #2
E:------------
B:------------
G:---------0--
D:-2---4---0--
A:-2---4------
E:------------
   1  4


Verse
Play once then play Transition #1 for one go-around
E:------------------------
B:------------------------
G:------------------------
D:---------5-----------3--
A:-----4-----------4------
E:-3-----------5----------
   1   2   3   3   2   1

[ Tab from: http://www.guitartabs.cc/tabs/m/matthews_dave/help_myself_tab.html ]
Transition #1
E:-------------------------------------
B:-------------------------------------
G:---------------------------------0---
D:---------4---2-----------4---2--(0)--
A:-2---3-----------2---3---------------
E:-------------------------------------
   1   2   4   1   1   2   4   1


"Ohhhhh colder..."
E:----------------------------------------------
B:----------------------------------------------
G:----------------------------------------------
D:---------9-----------7---6---------------(0)--
A:-----7-----------7-----------7------------0---
E:-5-----------5--------------------7/9--7------
   1   2   4   1   2   3   1   2    (2)  2


"Summer's here..."
E:------------------------------------------
B:------------------------------------------
G:------------------------------------------
D:------------------------------------------
A:-4-----4-----4-----4/5-----4-----4-----4-- 
E:-5-----3-----2-----2/3-----5-----3-----2-- 

Dave, I will see you in Camden 7/21/04
Comments