Matthews Dave - Digging A Ditch Chords & Tabs

 

Digging A Ditch Chords & Tabs

Matthews Dave Chords & Tabs

Version: 1 Type: Tab 0 ratings
1 star 2 stars 3 stars 4 stars 5 stars
comments

Digging A Ditch Tab

##################################################################################
# This file is the author's own work and represents their interpretation of the  #
# song. You may only use this file for private study, scholarship, or research.  #
##################################################################################

Digging a ditch - Dave Matthews

I haven't seen the entire song posted, so here it is. It wasn't too hard to put together from the tabs already posted.

Intro: Play this for most of the song except for "Digging a ditch..."
[ Tab from: http://www.guitartabs.cc/tabs/m/matthews_dave/digging_a_ditch_tab.html ]
e:-------------------------------------------------
B:-------0--------0----------1-----2-2-2-----------
G:-------0----0-----0--------0-----4-4-4-----------
D:-------0------0----0-------2---------------------
A:-------2----------------3------------------------
E:---3---------------------------------------------

The fill after the chorus lines:

e:-------------------------------------
B:-------------------------------------
G:------5-------4----------------------
D:-/3-------2-----------4-------5---0--
A:------------------2-------3----------
E:-------------------------------------


Comments