Matthews Dave - Crash Into Me Chords & Tabs

 

Crash Into Me Chords & Tabs

Matthews Dave Chords & Tabs

Version: 1 Type: Tab 0 ratings
1 star 2 stars 3 stars 4 stars 5 stars
comments

Crash Into Me Tab

##################################################################################
# This file is the author's own work and represents their interpretation of the  #
# song. You may only use this file for private study, scholarship, or research.  #
##################################################################################

This is an easier to play version of "Crash Into Me" for those of us who can't play as good as Dave Matthews. 
It also has lyrics over the tablature which I couldn't find on any other version on the website.  It
's not perfect but still sounds good.
Intro 2x
E--------0---0-0-0-----0--------0---0-0-0-------0--------0---0-0-0-----0--------0---0-0-0-----0
B--------0---0-0-0-----0--------0---0-0-0-------0--------0---0-0-0-----0--------0---0-0-0-----0
G--------4---4-4-4-----4--------4---4-4-4-------4--------4---4-4-4-----4--------4---4-4-4-----4
D--------2---2-2-2-----2--------2---2-2-2-------2--------2---2-2-2-----2--------2---2-2-2-----2
A---4----------------0--------2--------------------------------------0-------2----------------
E---------------------------------------------0--------4-----------------------------------0---


you've got your ball                   

E--------0---0-0-0-----0--------0---0-0-0-------0--------0---0-0-0-----0--------0---0-0-0-----0
B--------0---0-0-0-----0--------0---0-0-0-------0--------0---0-0-0-----0--------0---0-0-0-----0
G--------4---4-4-4-----4--------4---4-4-4-------4--------4---4-4-4-----4--------4---4-4-4-----4
D--------2---2-2-2-----2--------2---2-2-2-------2--------2---2-2-2-----2--------2---2-2-2-----2
A---4----------------0--------2--------------------------------------0-------2----------------
E---------------------------------------------0--------4-----------------------------------0---


who's got the claws                  
E--------0---0-0-0-----0--------0---0-0-0-------0--------0---0-0-0-----0--------0---0-0-0-----0
B--------0---0-0-0-----0--------0---0-0-0-------0--------0---0-0-0-----0--------0---0-0-0-----0
G--------4---4-4-4-----4--------4---4-4-4-------4--------4---4-4-4-----4--------4---4-4-4-----4
D--------2---2-2-2-----2--------2---2-2-2-------2--------2---2-2-2-----2--------2---2-2-2-----2
A---4----------------0--------2--------------------------------------0-------2----------------
E---------------------------------------------0--------4-----------------------------------0---


sweet like candy           to my soul         sweet you rock and   sweet you roll
E--------0---0-0-0-----0--------0---0-0-0-------0--------0---0-0-0-----0--------0---0-0-0-----0
B--------0---0-0-0-----0--------0---0-0-0-------0--------0---0-0-0-----0--------0---0-0-0-----0
G--------4---4-4-4-----4--------4---4-4-4-------4--------4---4-4-4-----4--------4---4-4-4-----4
D--------2---2-2-2-----2--------2---2-2-2-------2--------2---2-2-2-----2--------2---2-2-2-----2
A---4----------------0--------2--------------------------------------0-------2----------------
E---------------------------------------------0--------4-----------------------------------0---


         
E--------0---0-0-0-----0--------0---0-0-0-------0--------0---0-0-0-----0--------0---0-0-0-----0
B--------0---0-0-0-----0--------0---0-0-0-------0--------0---0-0-0-----0--------0---0-0-0-----0
G--------4---4-4-4-----4--------4---4-4-4-------4--------4---4-4-4-----4--------4---4-4-4-----4
D--------2---2-2-2-----2--------2---2-2-2-------2--------2---2-2-2-----2--------2---2-2-2-----2
A---4----------------0--------2--------------------------------------0-------2----------------
E---------------------------------------------0--------4-----------------------------------0---
oh and you come crash                     

E--------0---0-0-0-------------------------------------------------
B--------0---0-0-0--------------------------------3----------------
G--------4---4-4-4--------------------------------2----------------
D--------2---2-2-2----------------------2---------0----------------
A---4-----------------------------------2---------x----------------
E------------------------4---0---7------0---------2----------------


 ________________________________________________________You                                           and i come into
E--------0---0-0-0-----0--------0---0-0-0-------0--------0---0-0-0-----0--------0---0-0-0-----0
B--------0---0-0-0-----0--------0---0-0-0-------0--------0---0-0-0-----0--------0---0-0-0-----0
G--------4---4-4-4-----4--------4---4-4-4-------4--------4---4-4-4-----4--------4---4-4-4-----4
D--------2---2-2-2-----2--------2---2-2-2-------2--------2---2-2-2-----2--------2---2-2-2-----2
A---4----------------0--------2--------------------------------------0-------2----------------
E---------------------------------------------0--------4-----------------------------------0---


    You                                                                           in a boys dream
E--------0---0-0-0-----0--------0---0-0-0-------0--------0---0-0-0-----0--------0---0-0-0-----0
B--------0---0-0-0-----0--------0---0-0-0-------0--------0---0-0-0-----0--------0---0-0-0-----0
G--------4---4-4-4-----4--------4---4-4-4-------4--------4---4-4-4-----4--------4---4-4-4-----4
D--------2---2-2-2-----2--------2---2-2-2-------2--------2---2-2-2-----2--------2---2-2-2-----2
A---4----------------0--------2--------------------------------------0-------2----------------
E---------------------------------------------0--------4-----------------------------------0---


                                             
E----0-0-2-0-0-0-2-0-0-0-2-0-0-0-2-0-0-0-3-0-0-0-0-0-2-0-0-0-2-0-0-0-2-0-0-0-2-0-0-------------
B----0-0-0-0-0-0-0-0-0-0-0-0-0-0-0-0-0-0-2-0-0-0-0-0-2-0-0-0-2-0-0-0-2-0-0-0-2-0-0-------------
G----4-4-4-4-4-4-4-4-4-4-4-4-4-4-4-4-4-4-4-4-4-4-4-4-4-4-4-4-4-4-4-4-4-4-4-4-4-4-4-------------
D------------------------------------------------2-2-2-2-2-2-2-2-2-2-2-2-2-2-2-2-2-------------
A---4-------------------------------0-------2-----------------------0-------2------------------
E-----------------------------------------------0-------4-----------------------0--------------


ohh       touch your lips       
E--------0---0-0-0-----0--------0---0-0-0-------0--------0---0-0-0-----0--------0---0-0-0-----0
B--------0---0-0-0-----0--------0---0-0-0-------0--------0---0-0-0-----0--------0---0-0-0-----0
G--------4---4-4-4-----4--------4---4-4-4-------4--------4---4-4-4-----4--------4---4-4-4-----4
D--------2---2-2-2-----2--------2---2-2-2-------2--------2---2-2-2-----2--------2---2-2-2-----2
A---4----------------0--------2--------------------------------------0-------2----------------
E---------------------------------------------0--------4-----------------------------------0---

[ Tab from: http://www.guitartabs.cc/tabs/m/matthews_dave/crash_into_me_tab.html ]
        im bare boned           and         crazy                                            for you                                         oh and you come 
E--------0---0-0-0-----0--------0---0-0-0-------0--------0---0-0-0-----0--------0---0-0-0-----0
B--------0---0-0-0-----0--------0---0-0-0-------0--------0---0-0-0-----0--------0---0-0-0-----0
G--------4---4-4-4-----4--------4---4-4-4-------4--------4---4-4-4-----4--------4---4-4-4-----4
D--------2---2-2-2-----2--------2---2-2-2-------2--------2---2-2-2-----2--------2---2-2-2-----2
A---4----------------0--------2--------------------------------------0-------2----------------
E---------------------------------------------0--------4-----------------------------------0---


         crash                               into me yeah                                          baby______ and i  come into____
E--------0---0-0-0-------------------------------------------------
B--------0---0-0-0--------------------------------3----------------
G--------4---4-4-4--------------------------------2----------------
D--------2---2-2-2----------------------2---------0----------------
A---4-----------------------------------2---------x----------------
E------------------------4---0---7------0---------2----------------


___________________________________________________   you
E--------0---0-0-0-----0--------0---0-0-0-------0--------0---0-0-0-----0--------0---0-0-0-----0
B--------0---0-0-0-----0--------0---0-0-0-------0--------0---0-0-0-----0--------0---0-0-0-----0
G--------4---4-4-4-----4--------4---4-4-4-------4--------4---4-4-4-----4--------4---4-4-4-----4
D--------2---2-2-2-----2--------2---2-2-2-------2--------2---2-2-2-----2--------2---2-2-2-----2
A---4----------------0--------2--------------------------------------0-------2----------------
E---------------------------------------------0--------4-----------------------------------0---


in a boys dream                                   
E----0-0-2-0-0-0-2-0-0-0-2-0-0-0-2-0-0-0-3-0-0-0-0-0-2-0-0-0-2-0-0-0-2-0-0-0-2-0-0-------------
B----0-0-0-0-0-0-0-0-0-0-0-0-0-0-0-0-0-0-2-0-0-0-0-0-2-0-0-0-2-0-0-0-2-0-0-0-2-0-0-------------
G----4-4-4-4-4-4-4-4-4-4-4-4-4-4-4-4-4-4-4-4-4-4-4-4-4-4-4-4-4-4-4-4-4-4-4-4-4-4-4-------------
D------------------------------------------------2-2-2-2-2-2-2-2-2-2-2-2-2-2-2-2-2-------------
A---4-------------------------------0-------2-----------------------0-------2------------------
E-----------------------------------------------0-------4-----------------------0--------------


 
E--------0---0-0-0-----0--------0---0-0-0-------0--------0---0-0-0-----0--------0---0-0-0-----0
B--------0---0-0-0-----0--------0---0-0-0-------0--------0---0-0-0-----0--------0---0-0-0-----0
G--------4---4-4-4-----4--------4---4-4-4-------4--------4---4-4-4-----4--------4---4-4-4-----4
D--------2---2-2-2-----2--------2---2-2-2-------2--------2---2-2-2-----2--------2---2-2-2-----2
A---4----------------0--------2--------------------------------------0-------2----------------
E---------------------------------------------0--------4-----------------------------------0---


                        
E--------0---0-0-0-----0--------0---0-0-0-------0--------0---0-0-0-----0--------0---0-0-0-----0
B--------0---0-0-0-----0--------0---0-0-0-------0--------0---0-0-0-----0--------0---0-0-0-----0
G--------4---4-4-4-----4--------4---4-4-4-------4--------4---4-4-4-----4--------4---4-4-4-----4
D--------2---2-2-2-----2--------2---2-2-2-------2--------2---2-2-2-----2--------2---2-2-2-----2
A---4----------------0--------2--------------------------------------0-------2----------------
E---------------------------------------------0--------4-----------------------------------0---


         crash                               into me yeah                                          baby______ and i  come into____
E--------0---0-0-0-------------------------------------------------
B--------0---0-0-0--------------------------------3----------------
G--------4---4-4-4--------------------------------2----------------
D--------2---2-2-2----------------------2---------0----------------
A---4-----------------------------------2---------x----------------
E------------------------4---0---7------0---------2----------------




___________________________________________________   you
E--------0---0-0-0-----0--------0---0-0-0-------0--------0---0-0-0-----0--------0---0-0-0-----0
B--------0---0-0-0-----0--------0---0-0-0-------0--------0---0-0-0-----0--------0---0-0-0-----0
G--------4---4-4-4-----4--------4---4-4-4-------4--------4---4-4-4-----4--------4---4-4-4-----4
D--------2---2-2-2-----2--------2---2-2-2-------2--------2---2-2-2-----2--------2---2-2-2-----2
A---4----------------0--------2--------------------------------------0-------2----------------
E---------------------------------------------0--------4-----------------------------------0---



Ohh  Hike up your skirt a  little  more              
E--------0---0-0-0-----0--------0---0-0-0-------0--------0---0-0-0-----0--------0---0-0-0-----0
B--------0---0-0-0-----0--------0---0-0-0-------0--------0---0-0-0-----0--------0---0-0-0-----0
G--------4---4-4-4-----4--------4---4-4-4-------4--------4---4-4-4-----4--------4---4-4-4-----4
D--------2---2-2-2-----2--------2---2-2-2-------2--------2---2-2-2-----2--------2---2-2-2-----2
A---4----------------0--------2--------------------------------------0-------2----------------
E---------------------------------------------0--------4-----------------------------------0---


Ohh  Hike up your skirt a  little  more           
E--------0---0-0-0-----0--------0---0-0-0-------0--------0---0-0-0-----0--------0---0-0-0-----0
B--------0---0-0-0-----0--------0---0-0-0-------0--------0---0-0-0-----0--------0---0-0-0-----0
G--------4---4-4-4-----4--------4---4-4-4-------4--------4---4-4-4-----4--------4---4-4-4-----4
D--------2---2-2-2-----2--------2---2-2-2-------2--------2---2-2-2-----2--------2---2-2-2-----2
A---4----------------0--------2--------------------------------------0-------2----------------
E---------------------------------------------0--------4-----------------------------------0---


                    in a boys dream                                            in a boys dream
E----0-0-2-0-0-0-2-0-0-0-2-0-0-0-2-0-0-0-3-0-0-0-0-0-2-0-0-0-2-0-0-0-2-0-0-0-2-0-0-------------
B----0-0-0-0-0-0-0-0-0-0-0-0-0-0-0-0-0-0-2-0-0-0-0-0-2-0-0-0-2-0-0-0-2-0-0-0-2-0-0-------------
G----4-4-4-4-4-4-4-4-4-4-4-4-4-4-4-4-4-4-4-4-4-4-4-4-4-4-4-4-4-4-4-4-4-4-4-4-4-4-4-------------
D------------------------------------------------2-2-2-2-2-2-2-2-2-2-2-2-2-2-2-2-2-------------
A---4-------------------------------0-------2-----------------------0-------2------------------
E-----------------------------------------------0-------4-----------------------0--------------

Oh I watch you there...........
E--------0---0-0-0-----0--------0---0-0-0-------0--------0---0-0-0-----0--------0---0-0-0-----0
B--------0---0-0-0-----0--------0---0-0-0-------0--------0---0-0-0-----0--------0---0-0-0-----0
G--------4---4-4-4-----4--------4---4-4-4-------4--------4---4-4-4-----4--------4---4-4-4-----4
D--------2---2-2-2-----2--------2---2-2-2-------2--------2---2-2-2-----2--------2---2-2-2-----2
A---4----------------0--------2--------------------------------------0-------2----------------
E---------------------------------------------0--------4-----------------------------------0---


....................tied up and twisted the way I like to be for you for me come crash into me yeah.
E--------0---0-0-0-----0--------0---0-0-0-------0--------0---0-0-0-----0--------0---0-0-0-----0
B--------0---0-0-0-----0--------0---0-0-0-------0--------0---0-0-0-----0--------0---0-0-0-----0
G--------4---4-4-4-----4--------4---4-4-4-------4--------4---4-4-4-----4--------4---4-4-4-----4
D--------2---2-2-2-----2--------2---2-2-2-------2--------2---2-2-2-----2--------2---2-2-2-----2
A---4----------------0--------2--------------------------------------0-------2----------------
E---------------------------------------------0--------4-----------------------------------0---
Comments