Matthews Dave - Baby Chords & Tabs

 

Baby Chords & Tabs

Matthews Dave Chords & Tabs

Version: 2 Type: Tab 0 ratings
1 star 2 stars 3 stars 4 stars 5 stars
comments

Baby Tab

#-----------------------------PLEASE NOTE-----------------------------------------#
#The following file is the author's own work and represents their interpretation  #
#of the song. You may only use this file for private study, scholarship, or       #
#research. Remember to view this file in Courier, or some other monospaced        #
#font                                                                             #
#---------------------------------------------------------------------------------#


"Baby" by Dave Matthews
Transcribed by Adam Hanley

Intro: 

e|------------|------------|------------------|------------------|
b|------------|------------|------------------|------------------|
g|--7-6-------|--5-4-------|------------------|------------------|
d|--7-7--7-6--|--5-5--5-4--|--7-7-7-7--7---7--|--7-7-7-7--7---7--|
a|-------7-7--|-------5-5--|--5-5-7-5--7---7--|--5-5-7-5--7---7--|
E|------------|------------|------------------|------------------|


Verse:
[ Tab from: http://www.guitartabs.cc/tabs/m/matthews_dave/baby_tab_ver_2.html ]
e|--3--|--2--|--3--|--2--0--|--3--|--2--|--3--|
b|--0--|--3--|--0--|--3--2--|--0--|--3--|--0--|
g|--0--|--2--|--0--|--2--2--|--0--|--2--|--0--|
d|--0--|--0--|--0--|--0--2--|--0--|--0--|--0--|
a|--2--|-----|--2--|-----0--|--2--|-----|--2--|
E|--3--|-----|--3--|--------|--3--|-----|--3--|


Chorus:

e|--2--------0--|----------------------|
b|--3--2--3--2--|----------------------|
g|--2--2--4--2--|----------------------|
d|--0--2--4--2--|----2-0-----2-0--5-4--|
a|-----4--2--0--|--------4/5------5-5--|
E|--------------|--3-------------------|
                  ship in a bottle..

Bridge:

e|------------|------------|------------|------------|
b|----3-3-3-3-|----3-3-3-3-|----3-3-3-3-|----3-3-3-3-|
g|----2-2-2-2-|----2-2-2-2-|----2-2-2-2-|----2-2-2-2-|
d|------------|------------|--0---------|------------|
a|--2---------|--4---------|------------|------------|
E|------------|------------|------------|--3---------|



Questions Comments - AdWolf16@aol.com; visit my DMB Midi site, www.angelfire.com/music4/dmbmidis/
Comments