Matthew Good Band - Weapon Chords & Tabs

 

Weapon Chords & Tabs

Matthew Good Band Chords & Tabs

Version: 1 Type: Tab 1 rating
1 star 2 stars 3 stars 4 stars 5 stars
comments

Weapon Tab

Matthew Good Band - Weapon
This song is played down tuned 1/2 step with a drop D

Intro:

Eb|-------------------------------------
Bb|-----3---0---5---0---0---0---0---0---
Gb|----0---0---0---0---0---0---0---0----
Db|---4---4---5---5---2---2---2---2-----
Ab|-------------------------------------
Db|-0---0---0---0---2---2---2---4-------
       Here by my side......
*It Sounds like they may have used a detune effect here
[ Tab from: http://www.guitartabs.cc/tabs/m/matthew_good_band/weapon_tab.html ]
Acustic	        	1	2
Distortion Effects
Eb|-----------------|--------|-----------|
Bb|-----------------|--------|-----------|
Gb|-----------------|--------|-----------|
Db|--0h2-2---0h2-2--|-0h2-2--|-0h2-2---5-|
Ab|-----------------|--------|-----------|
Db|--2-------2------|-2------|-2-------2-|


Distortion	

Eb|---------------------------------------
Bb|---------------------------------------
Gb|---------------------------------------
Db|--0-0-0h2-0-0-0h2-2-0-0-0h2-0-0-0h2-2-5
Ab|--0-0-0h2-0-0-0h2-2-0-0-0h2-0-0-0h2-2-5
Db|--0-0-0h2-0-0-0h2-2-0-0-0h2-0-0-0h2-2-5


Thats all i got for now.....
Questions? Suggestions?
Email me : grizzy2000@Hotmail.com
Comments