Matthew Good Band - Vermillion Chords & Tabs

 

Vermillion Chords & Tabs

Matthew Good Band Chords & Tabs

Version: 1 Type: Bass Tab 0 ratings
1 star 2 stars 3 stars 4 stars 5 stars
comments

Vermillion Bass Tab

Song: Vermillion
Artist: Matthew Good Band
Album: None
Tuning: Normal
                     Tabbed by Dave          dave_hawley96@hotmail.com


  Intro/Verse
G|------------------------------------|
D|------------------------------------|
A|--6-6-6-6-6-6-6-6-6-6-6-6-6-6-6-6---|
E|------------------------------------|

G|------------------------------------|
D|------------------------------------|
A|----------------6-------------------|
E|--8-8-8-8-8-8-8---4-4-4-4-4-4-4-6---|

G|------------------------------------|
D|------------------------------------|
A|--6-6-6-6-6-6-6-6-6-6-6-6-8-8-8-8---|
E|------------------------------------|

G|------------------------------------|
D|------------------------------------|
A|----------------6-------------------|
E|--8-8-8-8-8-8-8---4-4-4-4-4-4-4-6---|




  Pre-Chorus  ( starting at 3rd holiday! holiday!...)
G|------------------------------------|
D|------------------------------------|
A|------------------------------------|
E|--1-1-1-1-1-1-1-1-1-1-1-1-1-1-1-1---|
[ Tab from: http://www.guitartabs.cc/tabs/m/matthew_good_band/vermillion_btab.html ]
G|------------------------------------|
D|------------------------------------|
A|--6-6-6-6-6-6-6-6-6-6-6-6-6-6-6-6---|
E|------------------------------------|




  Chorus
G|------------------------------------|
D|------------------------------------|
A|------------------------------------|
E|--1-1-1-1-1-1-1-1-3-3-3-3-3-3-3-3---|    X3.......on the 3rd time u play 
the 6's, take it right                                                     
back into the verse

G|------------------------------------|
D|------------------------------------|
A|--6-6-6-6-6-6-6-6-6-6-6-6-6-6-6-6---|
E|------------------------------------|




  Bridge
G|------------------------------------|
D|------------------------------------|   X4
A|------------------------------------|
E|--6--8-8--4-4-4-4-4-----------------|




Outtro
G|------------------------------------|
D|------------------------------------|
A|------------------------------------|
E|--1-1-1-1-1-1-1-1-1-1-1-1-1-1-1-1---|

G|------------------------------------|
D|------------------------------------|
A|--6-6-6-6-6-6-6-6-6-6-6-6-6-6-6-6---|
E|------------------------------------|






I'm pretty sure thats it. I am aware the outtro isnt quite right, but it 
sounds good, and its easy to play. enjoy!

Comments