Matthew Good Band - The Future Is X Rated Chords & Tabs

 

The Future Is X Rated Chords & Tabs

Matthew Good Band Chords & Tabs

Version: 1 Type: Bass Tab 0 ratings
1 star 2 stars 3 stars 4 stars 5 stars
comments

The Future Is X Rated Bass Tab

Song: The Future is X-Rated 
Artist: Matthew Good Band 
Album: Beautiful Midnight 
    Tabbed by Steve 
  

        Intro 
Gb|------------------------------------------------||--------------------------------| 
Db|-----------------------------------------------*||--------------------------------| 
Ab|-----------------------------------------------*||---3-3--3-3-3---7-7-7-----------| 
Eb|---17________________---17___________________---||------------------------0-0-0---| 
  
[ Tab from: http://www.guitartabs.cc/tabs/m/matthew_good_band/the_future_is_x_rated_btab.html ]
        Verse 
Gb|----------------------------------------------------------------| 
Db|----------------------------------------------------------------| 
Ab|---3-3---3-3-3---7-7-7---7-7-7--7\3-3---3-3-3---7-7-7---7-7-7---| 
Eb|----------------------------------------------------------------| 
  

        Chorus 
Gb|-----------------------------------------------------------------------------| 
Db|-----------------------------------------------------------------------------| 
Ab|-----------------------5-5--5-5-5-5-5-5------------------------5-----3-------| 
Eb|---0-0--0-0-0-0-0-0-----------------------3-3--3-3-3-3-3-3h5p3---3-3---3/0---| 
  
  

        "The Future is X-Rated" 
Gb|--------------| 
Db|--------------| 
Ab|-------2------| 
Eb|---0------3---| 
  
  

  That should be everything, any questions/comments, send me at Metalliduck62@hotmail.com. 

Comments