Matthew Good Band - Strange Days Chords & Tabs

 

Strange Days Chords & Tabs

Matthew Good Band Chords & Tabs

Version: 1 Type: Tab 0 ratings
1 star 2 stars 3 stars 4 stars 5 stars
comments

Strange Days Tab

   
Song: Strange Days
Artist: Matthew Good Band
Album: Beautiful Midnight
As tabbed by Joe Muggah

Tuned down 1/2 step


Intro
eb-----0-0------0-0-------0-0------0-0------0-0------0-0---
Bb--3--3-3---3--3-3---3---3-3--3---3-3------3-3------3-3---
Gb--2--2-2---2--2-2---2---2-2--2---2-2------2-2------2-2---
Db--0--------0--------0--------0---------------------------
Ab---------------------------------------0--------0--------
Eb---------------------------------------2--------2--------

(continued)
eb-----0-0------0-0----------------------------------------
Bb-----3-3------3-3----------------------------------------
Gb-----2-2------2-2----------------------------------------
Db---------------------------------------------------------
Ab--0--------0---------------------------------------------
Eb--2--------2---------------------------------------------


Verse A (Guitar 1)
eb-----0-0------0-0------0-0------0-0------3-3------3-3----
Bb-----2-2------2-2------2-2------2-2------3-3------3-3----
Gb--2--2-2---2--2-2---1--1-1---1--1-1------0-0------0-0----
Db--2--------2--------2--------2---------------------------
Ab--0--------0--------0--------0--------2--------2---------
Eb--------------------------------------3--------3---------

(continued)
eb-----2-2------2-2------0-0------0-0------0-0------0-0----
Bb--3--3-3---3--3-3------2-2------2-2------0-0------0-0----
Gb--2--2-2---2--2-2---2--2-2---2--2-2---1--1-1---1--1-1----
Db--0--------0--------2--------2--------2--------2---------
Ab--------------------0--------0--------2--------2---------
Eb--------------------------------------0--------0---------

(continued)
eb-----3-3------3-3------2-2------2-2----------------------
Bb-----3-3------3-3---3--3-3---3--3-3----------------------
Gb-----0-0------0-0---2--2-2---2--2-2----------------------
Db--------------------0--------0---------------------------
Ab--2--------2---------------------------------------------
Eb--3--------3---------------------------------------------


Verse B (Piano arranged for Guitar 2)
eb----------------------------------------------2----2-----
Bb--2-------2-------2-------2-------3---3-------3----3-3---
Gb--2--2----2----2--1--1----1----1--0---0--0-------------2-
Db-------2-----2----------2----2-------------0--0----0-----
Ab--0-------0-------0-------0------------------------------
Eb----------------------------------3---3------------------

(continued)
eb----------------------------------------------2----2-----
Bb--2-------2-----------------------3---3-------3----3-3---
Gb--2--2----2----2--1-------1-------0---0--0-------------2-
Db-------2-----2----2--2----2---2------------0--0----0-----
Ab--0-------0------------2----2----------------------------
Eb------------------0-------0-------3---3------------------

Chorus
eb--2--------2---------0--------0---------2--------2-------
Bb--2--------2---------2--------2---------3--3-3-3-3-------
Gb--2--------2---------2--2-2-2-2--2-2-2--2--2-2-2-2-------
Db--4--4-4-4-4--4-4-4--2--2-2-2-2--2-2-2--0--0-0-0-0-------
Ab--4--4-4-4-4--4-4-4--0--0-0-0-0--0-0-0-------------------
Eb--2--2-2-2-2--2-2-2--------------------------------------

(continued)                    end on
eb--------2--------2--------2--|--2--------2---------0-----
Bb--3-3-3-3--3-3-3-3--3-3-3-3--|--2--------2---------2-----
Gb--2-2-2-2--2-2-2-2--2-2-2-2--|--2--------2---------2-----
Db--0-0-0-0--0-0-0-0--0-0-0-0--|--4--4-4-4-4--4-4-4--2-----
Ab-----------------------------|--4--4-4-4-4--4-4-4--0-----
Eb-----------------------------|--2--2-2-2-2--2-2-2--------

(continued)
eb---------0---------2-------------------------------------
Bb---------2---------3-------------------------------------
Gb--2-2-2--2--2-2-2--2-------------------------------------
Db--2-2-2--2--2-2-2--0-------------------------------------
Ab--0-0-0--0--0-0-0----------------------------------------
Eb---------------------------------------------------------

Riff 1 (piano arranged for guitar)
eb-----17--------17--------17--------17--------------------
Bb--15----17--15----17--15----17--15----17------10---------
Gb-------------------------------------------------11------
Db-------------------------------------------12------------
Ab---------------------------------------------------------
Eb---------------------------------------------------------
[ Tab from: http://www.guitartabs.cc/tabs/m/matthew_good_band/strange_days_tab.html ]
(continued)
eb---------------------------------------------------------
Bb-----10--------10-----------10--------10--------10-------
Gb--------11--------11-----11--------11--------11----------
Db--12--------12--------12--------12--------12-------------
Ab---------------------------------------------------------
Eb---------------------------------------------------------

(continued)
eb---------------------------------------------------------
Bb--------10--------10--------10--------10-----------------
Gb-----11--------11--------11--------11--------------------
Db--12--------12--------12--------12-----------------------
Ab---------------------------------------------------------
Eb------------------------------------------10-------------

Post-Chorus
eb--2--------2--------2--------2---------2--------2--------
Bb--3--3-3-3-3--3-3-3-3--3-3-3-3--3-3-3--4--------4--------
Gb--2--2-2-2-2--2-2-2-2--2-2-2-2--2-2-2--4--4-4-4-4--4-4-4-
Db--0--0-0-0-0--0-0-0-0--0-0-0-0--0-0-0--4--4-4-4-4--4-4-4-
Ab---------------------------------------2--2-2-2-2--2-2-2-
Eb---------------------------------------------------------

(continued)
eb--2--------2---------------------------------------------
Bb--4--------4---------------------------------------------
Gb--4--4-4-4-4--4-4-4--------------------------------------
Db--4--4-4-4-4--4-4-4--------------------------------------
Ab--2--2-2-2-2--2-2-2--------------------------------------
Eb---------------------------------------------------------


Intro
Verse A
Verse A, B
Chorus
Post-Chorus, Riff 1 
Verse, Riff 1
Intro
Verse A, B
Verse A
Chorus
Post-Chorus, Riff 1
Verse, Riff 1
Intro
Verse

Very depressing song. I get choked up watching the video.
===========Strange Days - Matthew Good Band

Tabbed by Adam Bishop

I found this tabbed by Aaron "cheesypoof69" (low-down@home.com), on the Oh Canada
Archive, but it wasn't totally right and he just made up chord names, which was very very
very confusing.  Then I forgot about the song for awhile, saw the video (which is very sad,
I think), figured it out on my own, then matched the two versions together, so I hope it's
right.  What I called the Amaj7/9 may actually be an E, but I (and Aaron, apparently)
hear it with an A bass note.

Tune down half a step

Dsus2    - xx0230
Dsus2/F# - 2x0230
A        - x02220
Amaj7/9  - x02100
G        - 320033
F#m      - 244222
D        - xx0232
G/F#     - 2x0033


Dsus2        Dsus2/F#

     A              Amaj7/9
Good morning, don't cop out
    G                          D
You crawled from the cancer to land on your feet
        A        Amaj7/9
Are you crazy to want this
G          D
Even for a while

We're making this shit up
The reasons for being are easy to pay
You can't remember the others
They just kind of went away

So you're driving, it's rush hour
The cars on the freeway are moving like slugs
When you drift off to wake up
Do you always hit the brakes?

      F#m  A           D
We're done lying for a living
    Dsus2                             F#m   A
The strange days have come and you're gone, you're gone
       Dsus2
You're dead or dying
Dsus2/F#          A         G    G/F#    Dsus2
Dead or trying to go

It's evening, you're tired
You sleep walk, a robot out on the street
Are you crazy to want this
Even for a while

You're driving, it's rush hour
The cars on the freeway are moving

A                G       G/F#    D
Backwards into a wall of fire
A                G       G/F#    D
Backwards into a wall of fire
A                G       G/F#    D
Backwards into a wall of fire
A                G       G/F#    D
Backwards into a wall of fire

We're done lying for a living
The strange days have come and you're gone, you're gone
We're done lying for a living
The strange days have come and you're gone, you're gone
You're dead or dying
Dead or trying to go
To go

     A              Amaj7/9        G    G/F#    Dsus2
Good morning, don't cop out

http://www.angelfire.com/mi/Grenfell/guitar.html
Comments