Matthew Good Band - Strange Days Chords & Tabs

 

Strange Days Chords & Tabs

Matthew Good Band Chords & Tabs

Version: 2 Type: Bass Tab 0 ratings
1 star 2 stars 3 stars 4 stars 5 stars
comments

Strange Days Bass Tab

Song: Strange Days 
Artist: Matthew Good Band 
Album: Beautiful Midnight 
    tuning is drop D with and extra half step 

         Tabbed By Steve 

Verses 
Gb|------------------------------------------------------------------| 
Db|------------------------------------------------------------------| 
Ab|--0--0-0-0---0-0------------------------------------5--5--5-5-5---| 
Db|-------------------6--6-6-6---6-6---5--5-5-5---5-5----------------| 
[ Tab from: http://www.guitartabs.cc/tabs/m/matthew_good_band/strange_days_btab_ver_2.html ]
Gb|---------------------------------------------------------------| 
Db|---------------------------------------------------------------| 
Ab|--0--0-0-0---0-0-------------------------------------5--4--5---| 
Db|-------------------2--2-2-2---2-2---5--5-5-5---5-5---------0---| 
  

       Chorus 
Gb|------------------------------------------------------------------| 
Db|-------------------------------------------------------------7----| 
Ab|--------------------7--7-7-7---7-7---5-5---5-5-5-5---5h7p5-5---5p0| 
Db|--4--4-4-4---4-4--------------------------------------------------| 
  

       "backwards into a wall of fire" 
Gb|----------------------------------------------| 
Db|----------------------------------------------| 
Ab|--0--0-0-0---0-0/7-7--7-7-7--7-7--------------| 
Db|-----------------------------------5--4---0---| 
  

Any Questions about the tab, send them to Metalliduck62@hotmail.com 

Comments