Matthew Good Band - Rico Chords & Tabs

 

Rico Chords & Tabs

Matthew Good Band Chords & Tabs

Version: 1 Type: Bass Tab 0 ratings
1 star 2 stars 3 stars 4 stars 5 stars
comments

Rico Bass Tab

Rico - Matthew Good Band
from - Underdogs 
tabbed by - Jeff Caron 

verses : 

G -----------------------------
D -----------------------------
A -----------2-2-4-4-4-4-------
E -0-0-0-0-0------------4-4-2-2


then the part..... "Anything you want me to".......

G ----------------------------------------------------
D ----------------------------------------------------
A 2----------------0---------------4-----------------0
E ----------------------------------------------------


Chorus : 

G ------------------
D ------------------
A --------4-4-44-0-0
E 0-00-4------------


now the last ....."Anything you want me to...... " part.
[ Tab from: http://www.guitartabs.cc/tabs/m/matthew_good_band/rico_btab.html ]
G ------------------------------------------------------
D ------------------------------------------------------
A 2----------------0----------------4------------------0
E ------------------------------------------------------

G -------------------------------------------------------
D -------------------------------------------------------
A 2----------------0----------------4-------------------7
E -------------------------------------------------------

G -------------------------------------------------------
D -------------------------------------------------------
A 2---------------0------------------4------------------0
E -------------------------------------------------------

Then .....back to the chorus......the is a real easy song to play ...and
its fun to play along to.....

-Jeffron

Comments