Matthew Good Band - My Out Of Style Is Coming Back Chords & Tabs

 

My Out Of Style Is Coming Back Chords & Tabs

Matthew Good Band Chords & Tabs

Version: 2 Type: Bass Tab 0 ratings
1 star 2 stars 3 stars 4 stars 5 stars
comments

My Out Of Style Is Coming Back Bass Tab

Matthew Good Band 
My Out Of Style Is Coming Back 

This is the Beginning 
[ Tab from: http://www.guitartabs.cc/tabs/m/matthew_good_band/my_out_of_style_is_coming_back_btab_ver_2.html ]
D -------------------
A ------------------
E --3-3---0-0-0--
    Go right into this  (Verse)
G ------------------------------------------
D ------------------------------------------   <-----Listen to song for how many times
A  ---33------33-------33-------------------
E -----------------------------3-3------0-0-

Chorus:
G ------------------------------------------------------------------------------------
D ------------------------------------------------------------------------------------
A  --------------------3-3-3-3-3-3-3--------------------3-3-3-3-3-3-3----2-2-2-2-2-2-2
E  --5-5-5-5-5-5-5-------------------0-0-0-0-0-0-0------------------------------------

Go back to Verse.
Comments