Matthew Good Band - Load Me Up Chords & Tabs

 

Load Me Up Chords & Tabs

Matthew Good Band Chords & Tabs

Version: 1 Type: Tab 0 ratings
1 star 2 stars 3 stars 4 stars 5 stars
comments

Load Me Up Tab

   
Load Me Up
Artist: Matthew Good Band

This is the correct 1st guitar for load me up
Tune down, low to high Eb, Ab, Db, Gb, Bb, Eb

Intro and verse:
|------------------------------------------------------------------------------
|------------------------------------------------------------------------------
|-6---6---6---6---6---6---6---6-7-6---6---6---6---6---6---6---6-7--------------
|-7---7---7---7---7---7---7---7-7-7---7---7---7---7---7---7---7-7--------------
|-5---5---5---5---5---5---5---5-5-5---5---5---5---5---5---5---5-5--------------
|------------------------------------------------------------------------------
[ Tab from: http://www.guitartabs.cc/tabs/m/matthew_good_band/load_me_up_tab.html ]
|------------------------------------------------------------------------------
|------------------------------------------------------------------------------
|-6---6---6---6---6---6---6---6-7-7---7---7---7---7---7---7---7-6--------------
|-7---7---7---7---7---7---7---7-7-7---7---7---7---7---7---7---7-7--------------
|-5---5---5---5---5---5---5---5-5-5---5---5---5---5---5---5---5-5--------------
|------------------------------------------------------------------------------
                                                                              
|------------------------------------------------------------------------------
|------------------------------------------------------------------------------
|-6---6---6---6---6---6---6---6-7-7---7---7---7-6-6---6---6---6-6--------------
|-7---7---7---7---7---7---7---7-7-7---7---7---7-7-7---7---7---7-7--------------
|-5---5---5---5---5---5---5---5-5-5---5---5---5-5-5---5---5---5-5--------------
|------------------------------------------------------------------------------

Riff after verse. Listen to the song and you'll get the rhythm. Is that how you spell rhthyn?
|------------------------------------------------------------------------------
|---------0---------------0----------------------------------------------------
|-----2-------2-------2-------2------------------------------------------------
|------------------------------------------------------------------------------
|-----------------2------------------------------------------------------------
|-3----------------------------------------------------------------------------

Chorus:
"I'm frantic........................So load me up"
|------------------------------------------------------------------------------
|------------------------------------------------------------------------------
|------------------------------------------------------------------------------
|---------------4---4-4--------------------------4--4-4------------------------
|-5---5---5-5-5-2---2-2-2-2---2------5--5--5-5-5-2--2-2-2--2-2-----------------
|-3---3---3-3-3---------0-0---0------3--3--3-3-3--------0--0-0-----------------

"Whatever puts me all the way out"
|-2--2-2-3--3-3-3--2-2-0--0-0--------------
|-3--3-3-3--3-3-3--3-3-0--0-0--------------
|-2--2-2-0--0-0-4--4-4-2--2-2--------------
|-0--0-0-0--0-0-4--4-4-3--3-3--------------
|-0--0-0-2--2-2-2--2-2-3--3-3--------------
|--------3--3-3--------0--0-0--------------

That's basically it. I'll post the solo when I have a guitar in front of me.
Questions, comments, marriage proposals e-mail me at prettyfly111@hotmail.com.
Thanks to my guitar teacher James Brose for helping me figure it out.
P.S. Look for James Brose's CD coming out near 2002.
Comments