Matthew Good Band - Load Me Up Chords & Tabs

 

Load Me Up Chords & Tabs

Matthew Good Band Chords & Tabs

Version: 1 Type: Bass Tab 0 ratings
1 star 2 stars 3 stars 4 stars 5 stars
comments

Load Me Up Bass Tab

   
Load Me Up
Matthew Good Band- Beautiful Midnight
Tabbed By- Shane
welcome2theparty@hotmail.com

Tune Down half step (Eb,Ab,Db,Gb)

Verse- very easy to play

Gb|----------------------------------------------------------------|
Db|----------------------------------------------------------------|
Ab|-5-5-5-5-5-5-5-5-5-5-5-5-5-5-5-5--------------------------------|
Eb|---------------------------------3-3-3-3-3-3-3-3-3-3-3-3-3-3-3-3|

Gb|----------------------------------------------------------------|
Db|----------------------------------------------------------------|
Ab|-1-1-1-1-1-1-1-1-1-1-1-1-1-1-1-1--------------------------------|
Eb|---------------------------------3-3-3-3-3-3-3-3-0-0-0-0-0-0-0-0|

Pre-Chorus- a little tricky, listen closely and you'll get it

	(first part) (0:34,1:32)
Gb|-----------------------------|
Db|-5-5-5-4-4-4-4-4-------------|
Ab|------------------2-2-0-2-0-2|
Eb|-----------------------------|
[ Tab from: http://www.guitartabs.cc/tabs/m/matthew_good_band/load_me_up_btab.html ]
	(second part) (0:38,1:36)
Gb|----------------------------------------------------------------|
Db|---------------------------------5-5-5-5-5-5-5-5----------------|
Ab|----------------2-2-2-2-2-2-2-2------------------2-2-2-2-2-2-2-2|
Eb|3-3-3-3-3-3-3-3-------------------------------------------------|

Follow this with Eb open 16 times, and thats it.

Chorus- again, simple
(this is the "I'm Frantic.." part)   "Whatever puts me.."
Repeat as needed                        Again, repeat as needed (see notes)
Gb|--------------------------------|-----------------|
Db|--------------------------------|-----------------|
Ab|-----------------2-2-2-2--------|-5-5-----2-2-----|
Eb|-3-3-3-3-3-3-3-3---------0-0-0-0|-----3-3------0-0|

Guitar Solo

Gb|---------------------------------------------------|
Db|---------------------------------------------------|
Ab|-5-5------------5-5-0-0-0-2--5-5------------5-5-0-0|
Eb|-----5-5-5-3-3-------------------5-5-5-3-3---------|

"So So Deformed.." Part(2:48)
Gb|----------------------------------------------------------------|
Db|-----------------5-5-5-5-5-5-5-5-----------------5-5-5-5-5-5-5-5|
Ab|-2-2-2-2-2-2-2-2-----------------2-2-2-2-2-2-2-2----------------|
Eb|----------------------------------------------------------------|

Gb|------------------------|
Db|-5---2------------------|
Ab|---5---2-5--------------|
Eb|-----------3-0-0-0-0-0-0|


Notes:
I know this isn't too clear, but just listen closely and you'll get it, 
trust me.

Comments