Matthew Good Band - Jennis Song Chords & Tabs

 

Jennis Song Chords & Tabs

Matthew Good Band Chords & Tabs

Version: 4 Type: Tab 0 ratings
1 star 2 stars 3 stars 4 stars 5 stars
comments

Jennis Song Tab

   
This is another stellar song from MGB that shouldn't go unnoticed and I just 
came across the intro while playing, then the rest just unfolded. I know the 
verse and solo aren't here, so if anyone would like to submit them, please 
do. So, here's what I came up with:

Intro (0:00)
E--------------------------------------------------------------
A--------------------------------------------------------------
D-x-x-x------------------------7--7--7-\-6--6---6--6-----------
G-x-x-x--7--7--7-/-8--8--8--8--7--7--7---6--6---6--6-----------
B-x-x-x--7--7--7---8--8--8--8--5--5--5---4--4---4--4-----------
E--------5--5--5---6--6--6--6----------------------------------

E-------------------------------------------------------------
A-------------------------------------------------------------
D-------------------------7--7--7-\-6--6---6--6--------------- X2
G---7--7--7-/-8--8--8--8--7--7--7---6--6---6--6---------------
B---7--7--7---8--8--8--8--5--5--5---4--4---4--4---------------
E---5--5--5---6--6--6--6--------------------------------------

E--------------------------------------------------------------
A-----------------------------5---5---5---5---5---5-------------
D-------------------------7--6---6---6---6---6---6--6-----------
G---7--7--7-/-8--8--8--8--7---------------------------6-6-4-2-/--
B---7--7--7---8--8--8--8--5---------------------------6-6-4-2----
E---5--5--5---6--6--6--6------------------------------4-4-2-0----

Verse (?)

Pre-Chorus
Delay (00:51)
----5------------------------------
--6---6---(Do this about 8 times)---
-----------------------------------
-0---------------------------------
-----------------------------------
-----------------------------------
And me I'm waitin' to see
What goes around when she comes around to kill me
[ Tab from: http://www.guitartabs.cc/tabs/m/matthew_good_band/jennis_song_tab_ver_4.html ]
Chorus (1:03)
I just improvised the chorus. It can probably be done another way, but this 
sounds pretty good:

A                  E
Were you dead / Way b...
D               Em
Throw it back/ and ...
A              E
I^̉ve seen red/ Most ...
D              Em
Throw it back/ we....

Intro x2

Verse

Pre-Chorus

Chorus

Bridge (2:29)
-------0-----------0----------------------------
-----4---4-------4---4---(Repeat until Chorus)--
------------------------------------------------
------------------------------------------------
-0-----------2----------------------------------
------------------------------------------------

Chorus
Half of the beginning is just one guitar, and then the other comes in.

(3:49)
E------------------------------------------------------------------
A-----6------- (Do this 6 times)------------------------------------
D---5---5----------------------------------------------------------
G-0----------------------------------------------------------------
B------------------------------------------------------------------
E------------------------------------------------------------------

End (3:54)

E-----------------------------------------------
A-----------------------------------------------
D-----------------------------------------------
G--6-6-4-2-/------------------------------------
B--6-6-4-2--------------------------------------
E--4-4-2-0--------------------------------------

Intro
Verse
Pre-Chorus
Chorus
Intro x2
Verse
Pre-Chorus
Chorus
Bridge
Chorus
Solo
End

There are some things missing in this such as the verse and solo. So if 
anyone can get either or both of these, e-mail me please. Any comments or 
corrections email to: infinite_reason@hotmail.com
Comments