Matthew Good Band - Jennis Song Chords & Tabs

 

Jennis Song Chords & Tabs

Matthew Good Band Chords & Tabs

Version: 3 Type: Tab 0 ratings
1 star 2 stars 3 stars 4 stars 5 stars
comments

Jennis Song Tab

erson: matt leone

song: Jenni's Song

artist: Matthew Good Band

tab: Author/Artist: MGB
Title: Jenni's song
Transcribed by: Matt Leone
Email: mattleone@localbar.com

Ok....this is my revised version of my old jenni's song tab!
I hope its helpful! It is TUNED DOWN ONE HALF STEP!!!!

NOTE:  THESE RYTHEMS ARE NOT RIGHT!!!!!!!!!!!!!!  
       THEY ARE JUST TO GIVE YOU AN IDEA!
       ???ALSO....IM ONLY GUESSING THAT ITS TUNED DOWN, HOWEVER IT MAY
NOT BE???
Intro (guitar 1):
----|-------------------------------------------------|
----|------------------------6---6---6-6-6-6----------|
----|------------------------7---7---7-7-7-7----------|
-x-x|3---3---3-8-8-8-8---8-8-7---7---7-7-7-7-7---5---3|
-x-x|3---3---3-8-8-8-8---8-8-5---5---5-5-5-5-7---5---3|
-x-x|1---1---1-6-6-6-6---6-6-----------------5---3---1|
(rythem 1)                                                             
                
----|-------------------------------------------------|
----|------------------------6---6---6-6-6-6----------|
----|------------------------7---7---7-7-7-7----------|
----|3---3---3-8-8-8-8---8-8-7---7---7-7-7-7-7---5---3|x2
----|3---3---3-8-8-8-8---8-8-5---5---5-5-5-5-7---5---3|
----|1---1---1-6-6-6-6---6-6-----------------5---3---1|

----|-------------------------------------------------------------------|
----|-------------------------6-----------------------------------------|
----|-------------------------7-----------------------------------------|
----|-3---3---3-8-8-8-8---8-8-7----------------------------7--5--3-3----|
----|-3---3---3-8-8-8-8---8-8-5----------------------------7--5--3-3----|
----|-1---1---1-6-6-6-6---6-6------------------------------5--3--1-1----|


Intro (guitar 2):
----|-------------------------------------------------|
----|-------------------------------------------------|
----|---------------------------------------14--12-10-|
----|---------------------------------------14--12-10-|
----|---------------------------------------12--10--8-|
----|-------------------------------------------------|

----|--------------------------------------------------|
----|--------------------------------------------------|
----|10--10--10--------------7---7---7-7-7-7-14--12-10-|
----|10--10--10-8-8-8-8--8-8-7---7---7-7-7-7-14--12-10-|x2
----|-8---8---8-8-8-8-8--8-8-5---5---5-5-5-5-12--10--8-|
----|-----------6-6-6-6--6-6---------------------------|
                                                                       
      
----|-----------------------------------------------------------------------|
----|-------------------------6--6---6---6---6---6---6----------------------|
----|10--10--10---------------7----7---7---7---7---7-----7-7-7-14-12-1010\--|
----|10--10--10-8-8-8-8---8-8-7--------------------------7-7-7-14-12-1010\--|
----|-8---8---8-8-8-8-8---8-8-5--------------------------5-5-5-12-10--8-8\--|
----|-----------6-6-6-6---6-6-----------------------------------------------|

Verse:
Guitar 1:
----|--------------------------------------------------|
----|--------------------------------------------------|
----|-------------7-7---7-7----------------------------|
----|-3---3---3-x-7-7---7-7-x-x-7---7---7-x-8-8---8----|
----|-3---3---3-x-5-5---5-5-x-x-7---7---7-x-8-8---8----|
----|-1---1---1-x-----------x-x-5---5---5-x-6-6---6----|
                                                                       
      

"me I'm waited to see what goes around......" 
Guitar 2?:
----|---1-0-1---1-0-1---1-0-1---1-0-1------------|
----|---------1-------3-------1------------------|
----|--------------------------------------------|
----|-3------------------------------------------|
----|--------------------------------------------|
----|--------------------------------------------|
                                                                       
      
----|---1-0-1---1-0-1---1-0-1--------------------|
----|---------1-------3-------0------------------|
----|--------------------------------------------|
----|-3------------------------------------------|
----|--------------------------------------------|
----|--------------------------------------------|
                                                                       
      

"were you dead way before tonight"
Guitar 1: PLAY THROUGH TWICE
----|----------------------------------------------------------------|
----|----------------------------------------------------------------|
----|----------------------------------5--5-5-5---5-5-x-7-7---7------|
----|-8---8-8-8---8-8-8-8-3---3---x-x--5--5-5-5---5-5-x-7-7---7------|
----|-8---8-8-8---8-8-8-8-3---3---x-x--3--3-3-3---3-3-x-5-5---5------|
----|-6---6-6-6---6-6-6-6-1---1---x-x--------------------------------|
                                                                       
           
----|----------------------------------------------------------------|
----|----------------------------------------------------------------|
----|---------------------------------5---5-5-5--5-5-5--5-5-5--------|
----|-8---8-8-8---8-8-8-8-3---3---x-x-5---5-5-5--5-5-5--5-5-5--------|
----|-8---8-8-8---8-8-8-8-3---3---x-x-3---3-3-3--3-3-3--3-3-3--------|
----|-6---6-6-6---6-6-6-6-1---1---x-x--------------------------------| 
                                                                       

"were you dead way before tonight"
Guitar 2:
----|-------------------------------------------------------------------------|
----|-------------------------------------------------------------------------|
----|-91010--91010--910x-1010-1010-x-x--91010--91010--91010-------------------|
----|-8-8-8--8-8-8--8-8x-1010-1010-x-x-----------------------x-12-12--12-12-xx|
----|-8-8-8--8-8-8--8-8x--8-8--8-8-x-x-101010-101010-101010--x-12-12--12-12-xx|
----|-----------------------------------8-8-8--8-8-8--8-8-8--x-10-10--10-10-xx|
[ Tab from: http://www.guitartabs.cc/tabs/m/matthew_good_band/jennis_song_tab_ver_3.html ]
                                                HOLD THE BEND          
                   
----|----------------------13---------------------------------------------|
----|----------------------13------------8-----8-----8---------8-----8----|
----|-91010--91010--910x---14------------10b12-10b12-10b12-----10b12-10b12|
----|-8-8-8--8-8-8--8-8x---15---------------------------------------------|
----|-8-8-8--8-8-8--8-8x--------------------------------------------------|
----|---------------------------------------------------------------------|
    
----|-------------------------------------------------------------------------|
----|-------------------------------------------------------------------------|
----|-91010--91010--910x-1010-1010-x-x--91010--91010--91010-------------------|
----|-8-8-8--8-8-8--8-8x-1010-1010-x-x-----------------------x-12-12--12-12-xx|
----|-8-8-8--8-8-8--8-8x--8-8--8-8-x-x-101010-101010-101010--x-12-12--12-12-xx|
----|-----------------------------------8-8-8--8-8-8--8-8-8--x-10-10--10-10-xx|

----|----------------------13---------------------------------------------|
----|----------------------13---------------------------------------------|
----|-91010--91010--910x---14------------5---5---5-5-5-5-14---12--1010----|
----|-8-8-8--8-8-8--8-8x---15------------5---5---5-5-5-5-14---12--1010----|
----|-8-8-8--8-8-8--8-8x-----------------3---3---3-3-3-3-12---10---8-8----|
----|---------------------------------------------------------------------|
                                                                       
    


                                                                       
      
" i know what it means" 
the lead part for this is sort of like the other one ("me I'm waiting
to see")
----|----------------------------------------------------------------|
----|----------------------------------------------------------------|
----|-3---3---3---3---5---5---5---5---7---7---7---7------------------|
----|-3---3---3---3---5---5---5---5---7---7---7---7---7---7---7---7--|
----|-1---1---1---1---3---3---3---3---5---5---5---5---7---7---7---7--|
----|-------------------------------------------------5---5---5---5--|
play last time through:
----|----------------------------------------------------------------|
----|----------------------------------------------------------------|
----|-3---3---3---3--------------------------------------------------|
----|-3---3---3---3---5---5---5---5---5---5---5---5---5---5---5---5--|
----|-1---1---1---1---5---5---5---5---5---5---5---5---5---5---5---5--|
----|-----------------3---3---3---3---3---3---3---3---3---3---3---3--|
      

Matt sings alone "were you dead....."                                  
                                 
Guitar 2:
----|-------------------------------------------------------------------------|
----|-------------------------------------------------------------------------|
----|-91010--91010--910x-1010-1010-x-x--91010--91010--91010-------------------|
----|-8-8-8--8-8-8--8-8x-1010-1010-x-x-----------------------x-12-12--12-12-xx|
----|-8-8-8--8-8-8--8-8x--8-8--8-8-x-x-101010-101010-101010--x-12-12--12-12-xx|
----|-----------------------------------8-8-8--8-8-8--8-8-8--x-10-10--10-10-xx|

----|------------------------------------------------------------------------|
----|----------------------10------------------------------------------------|
----|-91010--91010--910x---10------------5---5---5-5-5-5-14---12--1010-------|
----|-8-8-8--8-8-8--8-8x---10------------5---5---5-5-5-5-14---12--1010-------|
----|-8-8-8--8-8-8--8-8x----8------------3---3---3-3-3-3-12---10---8-8-------|
----|------------------------------------------------------------------------|
                                                                       
      

Solo Guitar 2:(played with rythem 1)
----|-------8---8-------8b10r8------8b10r8------5h6p5-----5h6p5--------|
----|-1-/-6---6---6---6--------6--6--------6--6------5--5-------5------|
----|-------------------------------------------------------------5--5-|
----|------------------------------------------------------------------|
----|------------------------------------------------------------------|
----|------------------------------------------------------------------|
                                                                       
      
----|---8---8-------8b10r8------8b10r8---------------------------------|
----|-6---6---6---6--------6--6--------6---6--5-6-5--5-6-5-5---6\------|
----|------------------------------------------------------------------|
----|------------------------------------------------------------------|
----|------------------------------------------------------------------|
----|------------------------------------------------------------------|
                                                                       
      
----|------------------------------------------------------------------|
----|----8-----8-----8b10r8-------8b10r8-------5----6----5---/8--6-----|
----|-5----5-5---5-5--------5---5---------5--5----5----5----5----------|
----|------------------------------------------------------------------|
----|------------------------------------------------------------------|
----|------------------------------------------------------------------|
                                                                       
      
----|-8---8--------8b10r8----------------------------------------------|
----|---6---6---6---------6\-------------------------------------------|
----|------------------------------------------------------------------|
----|------------------------------------------------------------------|
----|------------------------------------------------------------------|
----|------------------------------------------------------------------|
                                                                       
      
Any questions, comments, corrections?
Comments