Matthew Good Band - Indestructible Chords & Tabs

 

Indestructible Chords & Tabs

Matthew Good Band Chords & Tabs

Version: 1 Type: Bass Tab 0 ratings
1 star 2 stars 3 stars 4 stars 5 stars
comments

Indestructible Bass Tab

Indestructible
MATTHEW GOOD BAND
Underdogs 1997

Intro, Chorus, Outro:
[ Tab from: http://www.guitartabs.cc/tabs/m/matthew_good_band/indestructible_btab.html ]
G|----------------------------------|
D|-----1----------------------------|
A|-1h3---3--------------3-3-3-3-----| 
E|-----------1-1-1--3-3-------------|


Verse:

G|----------------------------------|
D|----------------------------------|
A|--------3-3--33-------------------|
E|1-1--11---------------------------|

Brigde(s):

Comments