Matthew Good Band - Hello Time Bomb Chords & Tabs

 

Hello Time Bomb Chords & Tabs

Matthew Good Band Chords & Tabs

Version: 1 Type: Tab 0 ratings
1 star 2 stars 3 stars 4 stars 5 stars
comments

Hello Time Bomb Tab

   
Hello Time Bomb - Matthew Good Band

Here goes
The intro is on bass with some cool phaser effect
G-------------------------|
D-------------------------|
A--2-2-4-4-4--------------|
E---------------4-4-0-0-0-|

Guitar enters before the first first chorus
Pre-Chorus (0:27)
  p.m.
e-----------------|
B-----------------|
G---------4-------|
D-2-------4 x 16--|
A-2 x16 --2-------|
E-0---------------|

Chorus (figure timing out yourself)
(0:34)
  C#5 A5 E5  B5
e-----------------|
B-----------------|
G--6-----------4--|
D--6---7---2---4--|
A--4---7---2---2--|
E------5---0------|
[ Tab from: http://www.guitartabs.cc/tabs/m/matthew_good_band/hello_time_bomb_tab.html ]
This little riff is introduced before the next verse
and appears lots more times in the song
(0:49)
   B5     C#5    G#5  E5
e----------------------------|
B----------------------------|
G--4-4-/6-6-6----------------|
D--4-4-/6-6-6-----6-6-2-2-2--|
A--2-2-/4-6-6-----6-6-2-2-2--|
E-----------------4-4-0-0-0--|

Bridge (2:00)
  C#5 A5 G#5 E5 F#5
e---------------------|
B---------------------|
D--6-6----------------|
G--6-6--7--6--2--4-4--|
A--4-4--7--6--2--4-4--|
E-------5--4--0--2-2--|

These next riffs are just variations of the one in the verse
(2:41)             (2:48)

  G#5  E5   A5 B5   G#5  A5       F#5
e-----------------|-------------------|
B-----------------|-------------------|
G-----------------|-------------------|
D-6-6-2-2-2--7-9--|--6-6-7-7-7---7-4--|
A-6-6-2-2-2--7-9--|--6-6-7-7-7---7-4--|
E-4-4-0-0-0--5-7--|--4-4-5-5-5---5-2--|

The next two riffs just play in the background
I think a phaser would duplicate the effect

(2:45)
B--5p4h5p4h5p4h5p4h5

changes at (3:00) to
B--7-5-7-4h7-7-5-7-4h7

The last outro riff (w/ chorus chords)

B---5p4---4h5p4---| repeat till end of song
G-------4---------|

Comments