Matthew Good Band - Flashdance Ii Chords & Tabs

 

Flashdance Ii Chords & Tabs

Matthew Good Band Chords & Tabs

Version: 1 Type: Bass Tab

Flashdance Ii Bass Tab

Matthew Good Band
Flashdance II
Loser Anthems, B-sides, and Rarities

Verse
G|--------------------------------------------|
D|*------------------------------------------*|
A|*--3-3-3h5----------3---------3---------3--*|
E|-------------3-3-3-----0-0-0-----0-0-0------|

Pre ? Chorus
G|---5-5-5-5-----------9-9-9-9-x-x-9-9-9---|------------------|
D|*--5-5-5-5---5-5-5---9-9-9-9-x-x-9-9-9--*|------------------|
A|*--3-3-3-3-----------7-7-7-7-x-x-7-7-7--*|------------------|
E|------------3---3----0-0-0-0-x-x-0-0-0---|---3-3-3--3-3-3---|
[ Tab from: http://www.guitartabs.cc/tabs/m/matthew_good_band/flashdance_ii_btab.html ]
Chorus
G|---9-9-9-9--9-9-9-9---|---7-7-7-7--7-7-7-7---|---5-5-5-5--5-5-5-5---|
D|*--9-9-9-9--9-9-9-9---|---7-7-7-7--7-7-7-7---|---5-5-5-5--5-5-5-5---|
A|*--7-7-7-7--7-7-7-7---|---5-5-5-5--5-5-5-5---|---3-3-3-3--3-3-3-3---|
E|---0-0-0-0--0-0-0-0---|----------------------|----------------------|

G|---------------------------|-------------------------|
D|-------5---5-----5-----5--*|-------------------------|
A|--------------------------*|---3-3---3-3-3---3-3-3---|
E|---3-3---3---3-3----3------|-------------------------|

Bridge
G|----------------------|----------------------|----------------------|
D|*---------------------|----------------------|---------------------*|
A|*--0-0-0-0--0-0-0-0---|----------------------|---------------------*|
E|----------------------|---3-3-3-3--3-3-3-3---|---1-1-1-1--1-1-1-1---|