Matthew Good Band - Everything Is Automatic Chords & Tabs

 

Everything Is Automatic Chords & Tabs

Matthew Good Band Chords & Tabs

Version: 1 Type: Tab 0 ratings
1 star 2 stars 3 stars 4 stars 5 stars
comments

Everything Is Automatic Tab

Everything is Automatic - Matthew Good Band

Intro/Verse Guitar 1: (palm muted)(the verse is basically the same
except for a little bit of a strumming difference)
-----------------------------------------------------------------
-----------------------------------------------------------------
-----------------------------------------------------------------
-----------------------------------------------------------------
-----------------5-----------5-------------------5-------5-------
-7---7---7---7-------7---7-------7---7---7---7-------7-------7---
                                                                              
-----------------------------------------------------------------
-----------------------------------------------------------------
-----------------------------------------------------------------
-----------------------------------------------------------------
-----------------7-------------------------------5-------5-------
-5---5---5---5-------5---0---3---3---3---3---3-------3-------3---                                                                              
[ Tab from: http://www.guitartabs.cc/tabs/m/matthew_good_band/everything_is_automatic_tab.html ]
Intro Guitar 2: (comes in after intro, and during the verse)
-----------------------------------------------------------------
-----------------------------------------------------------------
---------0-----------0---------------0-----------0---------------
-----7-----------7-----------7---7-----------7-------------------
-9-------------------------------------------------------9-------
-----------------------------------------------------------------
                                                                              
---------------------------------------------------------7-------
---------------------------------------------------------7-------
---------0-----------0-------0-------0-----------0-------7-------
-----9-----------9---------------9-----------9-----------7-------
-7---------------------------------------------------------------
-----------------------------------------------------------------
                                                                              
Chorus Guitar 1:
-------------------------------------------------------------------------
-------------------------------------------------------------------------
---------------9---9-9--9-9-9-9-7---7---7-7-7----------------------------
-2---2---2-2-2-9---9-9--9-9-9-9-7---7---7-7-7-7---7-7--7-7-7-7-----------
-2---2---2-2-2-7---7-7--7-7-7-7-5---5---5-5-5-7---7-7--7-7-7-7-----------
-0---0---0-0-0--------------------------------5---5-5--5-5-5-5-----------
                                                                              
Chorus Guitar 2: (this part is hard to hear and is pretty fast, I just put
the first chord there so you know what notes to pick)
-0--------------------------------------5---------------5----------------
-0-----------------------------------------------------------------------
-9----------------------------------7--------------7---------------------
-9--------------------------------7---7----------7---7-------------------
-7------------------------------5-----------5----------------------------
----------------------------------------------5--------------------------
                                                                              
-0-----------------------------------------------------------------------
-0--------------------------------------7--------------7-----------------
-9----------------------------------0--------------0---------------------
-9--------------------------------7---7----------7---7-------------------
-7------------------------------5-----------5----------------------------
----------------------------------------------5--------------------------
                                                                              
"Its always what I wanted" Guitar 1:(rythem1)
------------------------------------------------------------------------------
------------------------------------------------------------------------------
---------------7---7-7-7---7-7------------------------------------------------
-2---2---2-2-2-7---7-7-7---7-7-5---5---5-5-5-5---5-5-5---5-5------------------
-2---2---2-2-2-5---5-5-5---5-5-5---5---5-5-5-5---5-5-5---5-5------------------
-0---0---0-0-0-----------------3---3---3-3-3-3---3-3-3---3-3------------------
                                                                              
"Its always what i wanted" Guitar 2:
------------------------------------------------------------------------------
------------------------------------------------------------------------------
------------------------------------------------------------------------------
-5---5---5-5-5-4b5r4-4b5r4-----2---2---0---0-0-5---5-5-4b5r4------------------
------------------------------------------------------------------------------
------------------------------------------------------------------------------
 play this the second time around:                                                                             
------------------------------------------------------------------------------
------------------------------------------------------------------------------
------------------------------------------------------------------------------
-5---5---5-5-5-4b5r4-4b5r4-----2---2---0---0-0--------------------------------
-----------------------------------------------4---4-4-2---2-2----------------
------------------------------------------------------------------------------
                                                                              
Guitar 1 (after rythem 1 the first time):
------------------------------------------------------------------------------
------------------------------------------------------------------------------
------------------------9---9-------------------------------------------------
-8---8---8-8-8-8---8-8--9---9-------------------------------------------------
-8---8---8-8-8-8---8-8--7---7-------------------------------------------------
-6---6---6-6-6-6---6-6--------------------------------------------------------
                                                                              
Guitar 2 (after rythem 1 the first time)
------------------------------------------------------------------------------
------------------------------------------------------------------------------
------------------------------------------------------------------------------
------------------------2b----------------------------------------------------
-1---1---1-1-1-1---1-1--------------------------------------------------------
------------------------------------------------------------------------------
                                                                              
Guitar 1 (after rythem 1 the second time)
------------------------------------------------------------------------------
------------------------------------------------------------------------------
-----------------9-9-9-9-9-9-9-9--7-------------------------------------------
-8-8-8-8-8-8-8-8-9-9-9-9-9-9-9-9--7-------------------------------------------
-8-8-8-8-8-8-8-8-7-7-7-7-7-7-7-7--5-------------------------------------------
-6-6-6-6-6-6-6-6--------------------------------------------------------------
                                                                              
Guitar 2 (after rythem 1 the second time)
------------------------------------------------------------------------------
------------------------------------------------------------------------------
------------------------------------------------------------------------------
-----------------2-2-2-2-2-2-2-2--0-------------------------------------------
-1-1-1-1-1-1-1-1--------------------------------------------------------------
------------------------------------------------------------------------------
                                                                              
After the second ending to rythem 1:
play this a few times and then  2  
and then come back to one:
              1                                2
----------------------------------------|-------------|
----------------------------------------|-------------|
-----7--------7--------7---------7------|------7------|
---7--5h7---7--5h7---7--5h7----7---5h7--|--7-8---7-8--|
-5--------5--------5---------5----------|-------------|
----------------------------------------|-------------|
                                                                              
after that play this:
------------------------------------------------------
-----7--------7---------7-------7---------------------
--7----7----7---7----7----7---7---7-------------------
-7-------7----------7-------7-------------------------
------------------------------------------------------
------------------------------------------------------
                                                                              
End on this:
Guitar 1:
------------------------------------------------------------------------------
------------------------------------------------------------------------------
---------------7---7-7-7--7-7-------------------------------------------------
-2---2---2-2-2-7---7-7-7--7-7--5----------------------------------------------
-2---2---2-2-2-5---5-5-5--5-5--5----------------------------------------------
-0---0---0-0-0-----------------3----------------------------------------------
                                                                              
Guitar 2:
------------------------------------------------------------------------------
------------------------------------------------------------------------------
------------------------------------------------------------------------------
-5---5---5-5-5-4b5r4---4b5r4---0----------------------------------------------
------------------------------------------------------------------------------
------------------------------------------------------------------------------
                                                                              

Comments