Matthew Good Band - Carmelina Chords & Tabs

 

Carmelina Chords & Tabs

Matthew Good Band Chords & Tabs

Version: 2 Type: Tab

Carmelina Tab

   
Song: Carmelina
Artist: Matthew Good Band
Album: Audio Of Being
Tabbed By: Wade Ouellet
Section: Tab
Tuning: Db Ab Db Gb Bb Eb

Intro/Verse:

Palm mute zeros

Guitar 1:
|---------------------------------------------------|
|---------------------------------------------------|
|---------------------------911---------------------|
|-1010------1010-99------99-xx----------------------|
|-x-x-------x-x--xx------xx-79----------------------|
|-1010-0000-1010-99-0000-99-----00000000-00000000---|

Guitar 2 comes in half way through verse with this chord played continuously:
|-----|
|-----|
|-7---|
|-x---|
|-5---|
|-----|

Chorus:
|---------------------------------|
|---------------------------------|
|----------------7--------7-------| x3
|-2--2225--5550007--00-0007--00---|
|-2--2225--5550005--00-0005--00---|
|-2--2225--555000---00-000---00---|

|---------------------------------------------|
|---------------------------------------------|
|---------------------------------------------|
|-2--2225--555-1010-555-0-00-00-00-1010-555---|
|-2--2225--555-1010-555-0-00-00-00-1010-555---|
|-2--2225--555-1010-555-0-00-00-00-1010-555---|
[ Tab from: http://www.guitartabs.cc/tabs/m/matthew_good_band/carmelina_tab_ver_2.html ]
Interlude:
Guitar 1 plays verse riff, guitar 2 plays:
|-12-10-12-10-12-14-12-10-12-10-12-14-12-10-12-10---|
|---------------------------------------------------|
|---------------------------------------------------| x2 (end on 10, slide down)
|---------------------------------------------------|
|---------------------------------------------------|
|---------------------------------------------------|

Verse: same

Chorus:
|---------------------------------|
|---------------------------------|
|----------------7--------7-------| x3
|-2--2225--5550007--00-0007--00---|
|-2--2225--5550005--00-0005--00---|
|-2--2225--555000---00-000---00---|

|--------------------------------------------------------|
|--------------------------------------------------------|
|--------------------------------------------------------|
|-2--2225--555-1010-555-0-00-00-00-1010-555-0-00-00-00---|
|-2--2225--555-1010-555-0-55-55-55-1010-555-0-55-55-55---|
|-2--2225--555-1010-555-0-00-00-00-1010-555-0-00-00-00---|

|----------------------------------|
|----------------------------------|
|----------------------------------|
|-1010-555-0-00-00-00-1010-555-0---|
|-1010-555-0-55-55-55-1010-555-0---|
|-1010-555-0-00-00-00-1010-555-0---|

Bridge: Bass plays chorus root notes

Outro:
|--------------------------------------------|
|--------------------------------------------|
|--------------------------------------------| x2
|-1010-555-0-00-00-00-1010-555-0--00-00-00---|
|-1010-555-0-00-00-00-1010-555-0--00-00-00---|
|-1010-555-0-00-00-00-1010-555-0--00-00-00---|

Then guitar 1 solos (not tabbed)and guitar keeps up the above chords