Matthew Good Band - Apparitions Chords & Tabs

 

Apparitions Chords & Tabs

Matthew Good Band Chords & Tabs

Version: 5 Type: Tab 0 ratings
1 star 2 stars 3 stars 4 stars 5 stars
comments

Apparitions Tab

 apparitions tab by matthew good band

    acoustic guitar

|-----0-----0---1---1---1---1-----0---1---1---1---|
|----1-----1---1---1---1---1-----1---1---1---1----|
|---0-----0---0---0---0---0-----0---0---0---0-----|x 2
|--2-----2---------------------2------------------|
|-3-----3---------------------3-------------------|
|-------------------------------------------------|

|----1----1---0---0---0---0----1---0---0---0-----|
|---1----1---1---1---1---1----1---1---1---1------|
|--2----2---0---0---0---0----2---0---0---0-------|x 2
|-3----3---3---3---3---3----3---3---3---3--------|
|------------------------------------------------|
|------------------------------------------------|
  
same picking
[ Tab from: http://www.guitartabs.cc/tabs/m/matthew_good_band/apparitions_tab_ver_5.html ]
|------5------|
|-----5-------|
|----5--------|x 2
|---7---------|
|--7----------|
|-5-------5/--|

|------10-----|
|-----10------|
|----10-------|
|---12--------|
|--12---------|
|-10----------|

|-----1-------|
|----1--------|
|---2---------|x 2
|--3----------|
|-------------|
|-------------|

|-----0-------|
|----1--------|
|---0---------|
|--2----------|x 2
|-3-----------|
|-------------|

|-----5-------|
|----6--------|
|---5---------|
|--7----------|x 2
|-8-----------|
|-------------|

|------5------|
|-----5-------|
|----5--------|x 2
|---7---------|
|--7----------|
|-5-------5/--|

|------10-----|
|-----10------|
|----10-------|
|---12--------|
|--12---------|
|-10----------|

|------8------|
|-----8-------|
|---10--------|
|--10---------|x 2
|-8-----------|
|-------------|


steve.   pompom@sympatico.ca



















Comments