Matthew Chase - Flying Away From Here Chords & Tabs

 

Flying Away From Here Chords & Tabs

Matthew Chase Chords & Tabs

Version: 1 Type: Tab 0 ratings
1 star 2 stars 3 stars 4 stars 5 stars
comments

Flying Away From Here Tab

   
This is my first song and i hope u like it

Verse:
Guitar 1
E--------3----------------------------------------------------|
B------3---3----------3---------------------------------------|
G----2-------2------0---0-----------0-----------0-------------|
D--3--------------2--------2------0---0-------0---0-----------|
A---------------3---------------2-------2---2-------2---------|
E-----------------------------3-----------3-------------------|X6


Guitar 2 (start 3 way through)
     F 6/9    Cadd9/E     G       G
E|-----3--------3---------3-------3--|
B|-----3--------3---------3-------3--|
G|-----2--------0---------0-------0--|
D|-----3--------2---------0-------0--|
A|-----0--------3---------2-------2--|
E|-----X--------0---------3-------3--| X4

Chorus including interludes
[ Tab from: http://www.guitartabs.cc/tabs/m/matthew_chase/flying_away_from_here_tab.html ]
Guitar 1
E--7--8--7--5--8--3------------------------------3----------|
B--------------------7---8---7----5---8---3---2-----3----5--|
G-------------------------------------------0---------4-----|
D-----------------------------------------------------------|
A-----------------------------------------------------------|
E-----------------------------------------------------------| X8


Guitar 2 

      Am        C         D       E
E|-----0--------0---------2-------0--|
B|-----1--------1---------3-------0--|
G|-----2--------0---------2-------1--|
D|-----2--------2---------0-------2--|
A|-----0--------3---------X-------2--|
E|-----X--------X---------X-------0--| X8

Then goto 
verse
chorus 

then for the solo play chorus while soloing


Guitar 1
E--8--10--10--12--15--17--15--12---8---7---7----5----3--5--------|
B---------------------------------------------------------7------|
G-----------------------------------------------------------7----|
D------------------------------------------------------------7---|
A-------------------------------------------------------------7--|
E---------------------------------------------------------------7| 


Chorus and fade out
Comments