Matthew Chase - Die For The Country Chords & Tabs

 

Die For The Country Chords & Tabs

Matthew Chase Chords & Tabs

Version: 1 Type: Tab 0 ratings
1 star 2 stars 3 stars 4 stars 5 stars
comments

Die For The Country Tab

   
Die For The Country
Music written By Matthew Chase and Kris Nowotny
Verse:  
Guitar 1
E--------3--------------------------------------------------------|
B------3---3--------------3---------------------------------------|
G----2-------2--------0-----0-----------------0--------------0----|
D--3----------------2-----------2-----------0----0---------0---0--|
A-----------------3-----------------2----2----------2----2------2-|
E---------------------------------------3--------------3----------| X4


Guitar 2 
    
      F 6/9    Cadd9/E     G       G
E|-----3--------3----------3-------3--|
B|-----3--------3----------3-------3--|
G|-----2--------0----------0-------0--|
D|-----3--------2----------0-------0--|
A|-----0--------3----------2-------2--|
E|-----X--------0----------3-------3--| X4
  
Both guitars are playing the Bridge

Bridge
 
   Dm    Am    Em7   G
E|--1----0------0----3-| 
B|--3----1------3----3-| 
G|--2----2------0----0-| 
D|--0----2------2----0-| 
A|--x----0------2----2-| 
E|--x----X------0----3-| 

Chorus including melody

Guitar 1

E--7--8--7--5--8--3----------------------------------3-------------|
B-------------------7---8--7--5---8---3---2---3--5-----------------|
G------------------------------------------------------4--2---0----|
D------------------------------------------------------------------|
A------------------------------------------------------------------|
E------------------------------------------------------------------|


E--7--8--7--5--7-8-10------------------5---6-4-3-1---0---|
B---------------------7-8--7-9-10-9-8--------------------|
G--------------------------------------------------------|
D--------------------------------------------------------|
A--------------------------------------------------------|
E--------------------------------------------------------| x2

Guitar 2 
[ Tab from: http://www.guitartabs.cc/tabs/m/matthew_chase/die_for_the_country_tab.html ]
      Am  Asus2    Am       C  Cadd9 C
E|-----0----0----------0--------0---0-------0-|
B|-----1----0----------1--------1---3-------1-|
G|-----2----2----------2--------0---0-------0-|
D|-----2----2----------2--------2---2-------2-|
A|-----0----0----------0--------3---3-------3-|
E|-----X----X----------X--------X---X-------X-|

  Dm      Dsus2      Dm        E        E7    E
E|1--------0----------1--------0--------0-----0----|
B|3--------3----------3--------0--------3-----0----|
G|2------- 2----------2--------1--------1-----1----|
D|0--------0----------0--------2--------2-----2----|
A|X--------X----------X--------2--------2-----2----|
E|X--------X--------X----------0--------0-----0----| 


Solo:
Guitar 1
Solo:
Guitar 1


E----2---3---5----3---------------7----8---7----10---12-------|
B-----------------------3---2--1------------------------------|
G-------------------------------------------------------------|
D-------------------------------------------------------------|
A-------------------------------------------------------------|
E-------------------------------------------------------------|

E|------------------------9----8-----7-----5---3--2---1---0-|
B|10---12----10-------------------------------------------0-|
G|--------------------------------------------------------1-|
D|--------------------------------------------------------2-|
A|--------------------------------------------------------2-|
E|--------------------------------------------------------0-| 

The order of the song happens in this order 
Intro- just guitar 1 playing; after 2 times through the verse starts
Verse- guitar 1 and 2 are playing there separate parts
Bridge- both guitars are playing the chords
Chorus- guitar 1 and 2 are playing there separate parts
Intro/Pre-Verse-just guitar 1 playing; after 2 times through the verse starts
Bridge- both guitars are playing the chords
Chorus- guitar 1 and 2 are playing there separate parts
Solo- guitar 1 plays the solo while guitar 2 is playing the chorus
Chorus- to fade out
Comments