Matteo Carcassi - Untitled Chords & Tabs

 

Untitled Chords & Tabs

Matteo Carcassi Chords & Tabs

Version: 1 Type: Tab 0 ratings
1 star 2 stars 3 stars 4 stars 5 stars
comments

Untitled Tab

#----------------------------------PLEASE NOTE---------------------------------#
#This file is the author's own work and represents their interpretation of the #
#song. You may only use this file for private study, scholarship, or research. #
#------------------------------------------------------------------------------##
From: Mike Yukish 
Subject: TAB: Classical by Carcassi

Great Classical Song by Carcassi, as tabulated by hack guitarist.

This song is from Noad's '100 Classical Songs for the Guitar,' or
something
like that.  I lent the book to a friend a year ago, haven't seen it
since. Which
explains why I can't remember the name of this song. The book is not in
tabulature,
so the conversion is mine. I think it is by Carcassi. I could easily be
wrong.


No matter. This is THE best song I know, and it is also easy to play.
I've been
stealing songs from the archive for years, figured I had better return
the favor.

My first TAB attempt, apologies offered in advance. Give all of the notes
the
same time interval, play it moderately fast, and you will figure it out
how it
is supposed to sound. Where there are three notes in sequence: (-2-2-2-)
the book instructed the musician to play them (a-m-i) as an exercise.

Mike Yukish

E|--------------------------------------1------0-------------------|
B|----------------------------------------------------3-----0-------|
G|--2-2-2---2-2-2---2-2-2-----2-2-2--2-2----2-2---1--1--2--2--------|
D|-----------------3--------2--------0------------------------------|
A|0-------3--------------------------------3------2-----0-----------|
E|------------------------------------------------------------------|

|-------------------------------------------------------0------|
|---0-----0-----0------0------1--------1-------0---------------|
|--2-2--2--2--2--2---2--2---2--2----2---2---2---2---1---1------|
|0----1-----2------3-------2---------------2-------------------|
|--------------------------------------------------------------|
|---------------------------------0----------------0-----------|

|------------------------------------1-------0---------------------|
|----------------------------------------------------3-------0-----|
|--2-2-2--2-2-2--2-2-2---2-2-2---2---2---2---2---1---1---2--2------|
|---------------3-------2-------0----------------------------------|
|0------3-------------------------------3-------2--------0---------|
|------------------------------------------------------------------|


|-----------------------------0-------0-1-0----0-5-----|
|-----0-----0-----1-------0---------1-------4----------|
|---2--2--2--2--2--2---1----------2--------------------|
|0------1-----2----------------------------------------|  
|-------------------------------0----------------------|
|--------------------0---------------------------------|

2nd part of song
|-------------------------------------------0------1------2----|
|--1-1-1--1-1-1--1-1-1--1-1-1-----3-----2---2---3--3--1---1----|
|---------------2------0---------2---2-------------------------|
|-------2----------------------3-------2-------0-------0-------|
|3-------------------------------------------------------------|
|--------------------------------------------------------------|
[ Tab from: http://www.guitartabs.cc/tabs/m/matteo_carcassi/untitled_tab.html ]
|----3-------3------2-------1-------0-------------------------0-----|
|--0--0---------------------------------------3-------1-------------|
|0--------0---0---0--0---0---0---0----0----0---0---0---0---0---0----|
|------------------------------------------0------2-----------------|
|--------------0-------2--------3-------------------------3---------|
|------3------------------------------------------------------------|

|---------------------------------------------------------0-0-0-----|
|----------2-2-2--3-3-3----------0-0-0--4-4-4---3-3-3---------------|
|--2-2-2-----------------5-5-5-------------------------1------------|
|3-------1------0------4-------0-------3-------2--------------------|
|-------------------------------------------------------------------|
|-------------------------------------------------------------------|

                          chord
|------------------------------------0-1-0-0-0-(3h4) -0-0-0-7-0-0-0---|
|--1-1-1--1-1-1--0-0-0------------0-----------------------------------|
|2----------------------2-2-2----1------------------------------------|
|--------------0-------1-------2--------------------------------------|
|-------0-------------------------------------------------------------|
|-----------------------------------------------------------0---------|

|1-0--0---0--0---0--0-----0-1-0-0-0-(3h4)-0-0-0-7-0-0-0-------|
|---4---3--1---0---------0------------------------------------|
|-----------------2----1--------------------------------------|
|--------------------2----------------------------------------|
|-------------------------------------------------------------|
|-------------------------------------------------0-----------|

|1-0---0---0-0-0--0------0---0--0--0--0--0--0----|
|----4---3--1-0----------------------------------|
|----------------2---1---------------------------|
|----------------------3---2--1--2--0--3--2------|
|------------------------------------------------|
|------------------------------------------------|

|----------------------------------1------0-------------------|
|------------------------------------------------3------0-----|
|--2-2-2--2-2-2--2-2-2--2-2-2--2---2--2---2--1--1---2--2------|
|---------------3------2-------0------------------------------|
|0------3-----------------------------3------2------0---------|
|-------------------------------------------------------------|

|-------------------------------------0-----1-------0----|
|------------------2-----2-----3-------------------------|
|----3-----3-----0--0--0--0--2--2--2--2--2--2---2----2---|
|--3--3--3--3--2-----2-----3------------0-----2----------|
|5-----5-------------------------4-----------------------|
|--------------------------------------------------------|

|----------------------0-0-0------------------------------|
|---4-4-4---4-4-4-------------3-3-3---1-1-1---0-0-0-------|
|----------2--------1----------------2--------------------|
|4--------------------------2----------------0------------|
|---------------------------------------------------------|
|---------------------------------------------------------|

|------------------------------0---------0-1-0---0-5------|
|-----0------0------1--------0---------1-------4----------|
|---2--2---2--2---2--2----1----------2--------------------|
|0-------1------2-----------------------------------------| |  
|-----------------------------------0---------------------|
|-----------------------0---------------------------------|
Comments