Matteo Carcassi - Study In The Key Of C Major Chords & Tabs

 

Study In The Key Of C Major Chords & Tabs

Matteo Carcassi Chords & Tabs

Version: 1 Type: Tab 0 ratings
1 star 2 stars 3 stars 4 stars 5 stars
comments

Study In The Key Of C Major Tab

Exercise in the key of C major


Author:  Matteo Carcassi



Prelude (4/4):
||------0-------0-|------0-------0-|------1-------1-|------1-------1-|
||----1-------1---|----1-------1---|----3-------3---|----3-------3---|
||--0-------0-----|--2-------2-----|--2-------2-----|--0-------0-----|
||--------2-------|----------------|0-------3-------|----------------|
||3---------------|0-------3-------|----------------|--------2-------|
||----------------|----------------|----------------|3---------------|
||1 + 2 + 3 + 4 + |1 + 2 + 3 + 4 + |1 + 2 + 3 + 4 + |1 + 2 + 3 + 4 + |

|------0-------0-|-------1------1-|------0-------0-|0---------------||
|----1-------1---|-----0------0---|----1-------1---|1---------------||
|--0-------0-----|---2------2-----|--0-------0-----|0---------------||
|----------------|0-------3-------|----------------|----------------||
|3-------0-------|----------------|----------------|3---------------||
|----------------|----------------|3-------3-------|----------------||
|1 + 2 + 3 + 4 + |1 + 2 + 3 + 4 + |1 + 2 + 3 + 4 + |1 + 2 + 3 + 4 + ||


Andantino (4/4):
||----------------|----------------|0---0---1---1---|----------------|
||1---1---0---0---|3---3---1---1---|----------------|0---0---1-------|
||--0---0---0---0-|--0---0---0---0-|--0---0---0---0-|--0---0---------|
||2---2---0---0---|3---3---2---2---|--------0---0---|----------------|
||----------------|----------------|3---3-----------|--------3-------|
||----------------|----------------|----------------|3---3-----------|
||1 + 2 + 3 + 4 + |1 + 2 + 3 + 4 + |1 + 2 + 3 + 4 + |1 + 2 + 3 + 4 + |

|0---0---1---1---|0---0---1---1---|2---2---3---3---|2---2---3-------|
|1---1---3---3---|2---2---3---3---|1---1---0---0---|1---1---0-------|
|--0---0---0---0-|--0---0---0---0-|----------------|--------0-------|
|----------------|----------------|--0---0---0---0-|--0---0---------|
|----------------|----------------|----------------|----------------|
|----------------|----------------|----------------|----------------|
|1 + 2 + 3 + 4 + |1 + 2 + 3 + 4 + |1 + 2 + 3 + 4 + |1 + 2 + 3 + 4 + |

||----------------|----------------|0---0---1---1---|----------------||
||1---1---0---0---|3---3---1---1---|----------------|0---0---1-------||
||--0---0---0---0-|--0---0---0---0-|--0---0---0---0-|--0---0-0-------||
||2---2---0---0---|3---3---2---2---|----------------|--------2-------||
||----------------|----------------|3---3---0---0---|--------3-------||
||----------------|----------------|----------------|3---3-----------||
||1 + 2 + 3 + 4 + |1 + 2 + 3 + 4 + |1 + 2 + 3 + 4 + |1 + 2 + 3 + 4 + ||









Waltz (3/8):
||------------|------------|------------|----1---1---|----0-------|------------|
||------------|1---1---1---|3-----------|----0---0---|----1-------|1---1---1---|
||--------0---|------------|0-------0---|------------|--------0---|------------|
||------------|2---2---2---|------------|------------|------------|2---2---2---|
||------------|------------|------------|------------|3-----------|------------|
||------------|------------|------------|3-----------|------------|------------|
||1 + 2 + 3 + |1 + 2 + 3 + |1 + 2 + 3 + |1 + 2 + 3 + |1 + 2 + 3 + |1 + 2 + 3 + |

|------------|----1---1---|0-----------|------------|------------|----1---1---|
|3-----------|----0---0---|1-----------|----0---0---|----1---1---|--0---0---0-|
|0-------0---|------------|--------0---|----0---0---|----0---0---|------------|
|------------|------------|------------|3-----------|2-----------|0-----------|
|------------|------------|3-----------|------------|------------|------------|
|------------|3-----------|------------|------------|------------|------------|
|1 + 2 + 3 + |1 + 2 + 3 + |1 + 2 + 3 + |1 + 2 + 3 + |1 + 2 + 3 + |1 + 2 + 3 + |
[ Tab from: http://www.guitartabs.cc/tabs/m/matteo_carcassi/study_in_the_key_of_c_major_tab.html ]
|----0---0---|----3---3---|----1-------|------------|------------|0-------0---|
|--1---1---1-|----1---1---|--------3---|0-------0---|1-------0---|1-----------|
|------------|------------|------------|----0-------|------------|2-----------|
|------------|------------|0-----------|------------|------------|------------|
|3-----------|0-----------|------------|------------|3-----------|----2-------|
|------------|------------|------------|3-----------|------------|------------|
|1 + 2 + 3 + |1 + 2 + 3 + |1 + 2 + 3 + |1 + 2 + 3 + |1 + 2 + 3 + |1 + 2 + 3 + |

|0-------0---|--0---0---0-|--0-----0---|0-------0---|0-------0---|--0---0---0-|
|0-----------|3---0---3---|1-----------|1-----------|0-----------|3---0---3---|
|0-----------|------------|----2-------|2-----------|0-----------|------------|
|------------|------------|------------|------------|------------|------------|
|------------|------------|0-----------|----0-------|------------|------------|
|----0-------|0-----------|------------|------------|----0-------|0-----------|
|1 + 2 + 3 + |1 + 2 + 3 + |1 + 2 + 3 + |1 + 2 + 3 + |1 + 2 + 3 + |1 + 2 + 3 + |

|------------||
|------------||
|2-----------||
|------------||
|0-----------||
|------------||
|1 + 2 + 3 + ||



Allegretto (2/4):
|3---1-------0---|--------0-------|--------1-------|--------0---0---|
|--------3-------|----1-------1---|----0-------0---|----1-----------|
|----------------|--0---0---------|--0---0---------|--0---0---------|
|----------------|----------------|----------------|----------------|
|----------------|3---------------|----------------|3---------------|
|----------------|----------------|3---------------|----------------|
|1   +   2   +   |1   +   2   +   |1   +   2   +   |1   +   2   +   |

|3---1-------0---|--------0-------|--------1-------|----------------|
|--------0-------|----1-------1---|----0-------0---|1---------------|
|----------------|--0---0---------|--0---0---------|----------------|
|----------------|----------------|----------------|--------0-------|
|----------------|3---------------|----------------|3---------------|
|----------------|----------------|3---------------|----------------|
|1   +   2   +   |1   +   2   +   |1   +   2   +   |1   +   2   +   |




|----------------|----------------|0-------0---0---|2-------2-------|
|1-------1-------|3-------3-------|----------------|1-------1-------|
|----0-------0---|----0-------0---|----0-----------|----------------|
|3-------3-------|----------------|----------------|----0-------0---|
|----------------|2-------2-------|3-------3-------|----------------|
|----------------|----------------|----------------|----------------|
|1   +   2   +   |1   +   2   +   |1   +   2   +   |1   +   2   +   |

|3-----------0---|----------------|------------0---|3---1-------0---|
|0-------0-------|3---1-----------|----------------|--------3-------|
|----0-----------|--------2---0---|0---------------|----------------|
|----------------|0---------------|----------------|----------------|
|----------------|----------------|----------------|----------------|
|----------------|----------------|3---------------|----------------|
|1   +   2   +   |1   +   2   +   |1   +   2   +   |1   +   2   +   |

|--------0-------|--------1-------|--------0---0---|3---1-------0---|
|----1-------1---|----0-------0---|----1-----------|--------3-------|
|--0---0---------|--0---0---------|--0---0---------|----------------|
|----------------|----------------|----------------|----------------|
|3---------------|----------------|3---------------|----------------|
|----------------|3---------------|----------------|----------------|
|1   +   2   +   |1   +   2   +   |1   +   2   +   |1   +   2   +   |

|--------0-------|--------1-------|----------------||
|----1-------1---|----0-------0---|1---------------||
|--0---0---------|--0---0---------|----------------||
|----------------|----------------|----------------||
|3---------------|----------------|3---------------||
|----------------|3---------------|----------------||
|1   +   2   +   |1   +   2   +   |1   +   2   +   ||




OK, this is my second TAB, hope you enjoy it.
For suggestions or requests,
please write me (I don't accept corrections to this TAB since I tabbed it out directly
from the original book):)

John Kepa Balparda
Angel
johnkepa@hotmail.com
Comments