Matt Wertz - Red Meets Blue Chords & Tabs

 

Red Meets Blue Chords & Tabs

Matt Wertz Chords & Tabs

Version: 1 Type: Tab 0 ratings
1 star 2 stars 3 stars 4 stars 5 stars
comments

Red Meets Blue Tab

   
----------------------------------------------------------------------------
			     RED MEETS BLUE - MATT WERTZ
----------------------------------------------------------------------------
Tabbed by: Wes Morrow
Email: mission_weasel@yahoo.com

Tuning: Tune down half a step

I hope this helps you get started email me with comments questions or corrections
[ Tab from: http://www.guitartabs.cc/tabs/m/matt_wertz/red_meets_blue_tab.html ]
e|-------------------------------------------------------------------------|
B|----------3-------------------7---7------------3-------------------7----7|
G|----------2p0-----------------6---7------------2p0-----------------7----6|
D|-------------------------------------------------------------------------|
A|-------------------------------------------------------------------------|
E|-----3---------x----3/7--7--x-----------7\3--3------x----3/7--7----------|
      
                 ^bitch slap E string with your thumb

2nd Part
e|-------------------------------------------------------------------------|
B|-----------8p7----8\--------3-----3/-------------------------------------|
G|-------------------------------------------------------------------------|
D|--------9---------9\------4-------4/-------------------------------------|
A|-----7------------7\----2---------2/-------------------------------------|
E|-------------------------------------------------------------------------|




| /  slide up
| \  slide down
| h  hammer-on
| p  pull-off
| ~  vibrato
| +  harmonic
| x  Bitch slap the E string
===============================================================================
Comments