Matt Skiba - Next To You Chords & Tabs

 

Next To You Chords & Tabs

Matt Skiba Chords & Tabs

Version: 2 Type: Tab 0 ratings
1 star 2 stars 3 stars 4 stars 5 stars
comments

Next To You Tab

The other tab is good, but the intro and verse are tabbed too low (Dude, play along at 2:35 in the song).
So play this one cuz it's better.

[ Tab from: http://www.guitartabs.cc/tabs/m/matt_skiba/next_to_you_tab_ver_2.html ]
INTRO:
e|-----------------------------------| 
b|-----------------------------------| 
G|-----------------------------------| 
D|-----7-------7-------7-------7-----| 
A|-4-4---4-5-5---5-------------------| 
E|-----------------5-5---5-5-5---5---|

VERSE: 
e|-------------------------------------| 
b|-------------------------------------|
G|-------------------------------------| 
D|-----7-------7-------7-------7-------| 
A|-4-4---4-5-5---5-----------------[x3]| 
E|-----------------5-5---5-5-5---5-----| 

Then go here for the rest of the tab: http://ultimate-guitar.com/tabs/m/matt_skiba/next_to_you_tab.htm
Comments