Matt Skiba - Next To You Chords & Tabs

 

Next To You Chords & Tabs

Matt Skiba Chords & Tabs

Version: 1 Type: Tab 0 ratings
1 star 2 stars 3 stars 4 stars 5 stars
comments

Next To You Tab

   
“Next to You”
Matt Skiba
Tabbed by: bt12483@aol.com 

r= let ring

INTRO:
e|-----------------------------------| 
b|-----------------------------------| 
G|-----------------------------------| 
D|-----6-------6-------6-------6-----| 
A|-3-3---3-4-4---4-------------------| 
E|-----------------4-4---4-4-4---4---|

VERSE: 
e|-------------------------------------------------| 
b|----------------------------(listen for strumming pattern)| 
G|-------------------------------------------8-----| 
D|-----6-------6-------6-------6-------------8-[x8]| 
A|-3-3---3-4-4---4-----------------[3x]-then-6-----| 
E|-----------------4-4---4-4-4---4-----------------| 
[ Tab from: http://www.guitartabs.cc/tabs/m/matt_skiba/next_to_you_tab.html ]
CHORUS: (listen for strumming pattern)
e|---------------------------------| 
b|---------------------------------| 
G|---------6---------------8-------| 
D|-6-------6-[x32]-3-[x32]-8-[x32]-| 
A|-6-[x32]-4-------3-------6-------| 
E|-4---------------1---------------|

END: (listen for strumming pattern)
e|---------------------------| 
b|---------------------------| 
G|-8------/6------/8---------| 
D|-8-[x8]-/6-[x4]-/8-[x4]-6r-| 
A|-6------/4------/6------6r-| 
E|------------------------4r-|

SONG STRUCTURE:

INTRO: x2
VERSE: x1
INTRO: x2
VERSE: x1
CHORUS:x1
INTRO: x2
VERSE: x1
INTRO: x2 (leads into chorus)
CHORUS:x2
INTRO: x3
END:   x1
Comments