Matt Sharp - Goodbye West Coast Chords & Tabs

 

Goodbye West Coast Chords & Tabs

Matt Sharp Chords & Tabs

Version: 1 Type: Tab 0 ratings
1 star 2 stars 3 stars 4 stars 5 stars
comments

Goodbye West Coast Tab

   
                                *Matt Sharp*
                            *Goodbye West Coast*
                     *Puckett's Versus The Country Boy*

all guitars are tuned 1/2 step down

chords:
    G     C     D     G*
e|--3--|--0--|--2--|--7--|
B|--0--|--1--|--3--|--8--|
G|--0--|--0--|--2--|--7--|
D|--0--|--2--|--0--|--9--|
A|--2--|--3--|-(0)-|-----|
E|--3--|-----|-----|-----|
*strummed by guitar 3

intro:
guitars 1 and 2:
 G       C        D       C
|/   /  //// / //|/   /  //// / //|

verse:
 G*      C        D       C
|/   /  //// / //|/   /  //// / //|
 G       C        D       C
|/   /  //// / //|/   /  //// / //|

piano arranged for guitar:
(last measure)
   D               C                G
e|-------------------------7-5-----|---
B|-----------------------------8---|---
G|---------------------------------|7--
D|---------------------------------|---
A|---------------------------------|---
E|---------------------------------|---
   1 e + a 2 e + a 3 e + a 4 e + a     

   hazy day / makin' my way
   out somewhere on the motorhighway
   headin' down / i'm east coast bound
   another day's been lost and found

guitar 3 fill:
(hybrid picking)
   G               C                D               C
e|-------------7-5-3---------------|--------------------------------|
B|-------------------------7-5-----|3------------(5)----------------|
G|-----------7---5-4---------------|----------(7)b9---9r7---9r7-----|
D|-------------------------7-5-----|4---------------------5-----5---|
A|---------------------------------|--------------------------------|
E|---------------------------------|--------------------------------|
   1 e + a 2 e + a 3 e + a 4 e + a  1 e + a 2 e + a 3 e + a 4 e + a    

   G               C                D               C
e|-------------7-5-3---------------|--------------------------------||
B|-------------------------7-5-----|3-------------------------------||
G|-----------7---5-4---------------|----------(7)b9---9r7---9r7-----||
D|----------------------/7---5-----|4---------------------5-----5-0-||
A|---------------------------------|--------------------------------||
E|---------------------------------|--------------------------------||
   1 e + a 2 e + a 3 e + a 4 e + a  1 e + a 2 e + a 3 e + a 4 e + a    

verse 2:
 G*      C        D       C
|/   /  //// / //|/   /  //// / //|
 G*      C        D       C
|/   /  //// / //|/   /  //// / //|
 G       C        D       C
|/   /  //// / //|/   /  //// / //|
 G       C        D       C
|/   /  //// / //|/   /  //// / //|
 D
|/   /  /////////|

piano arranged for guitar:
(after 4 measures)
   G               C                D               C
e|---------------------------------|------------------------7-------|
B|-----------------------5-8-------|----7---10----------------108---|
G|-------4-7---------5-7-----------|--7-----------------------------|
D|---5-7---------------------------|--------------------------------|
A|---------------------------------|--------------------------------|
E|---------------------------------|--------------------------------|
   1 e + a 2 e + a 3 e + a 4 e + a  1 e + a 2 e + a 3 e + a 4 e + a   
[ Tab from: http://www.guitartabs.cc/tabs/m/matt_sharp/goodbye_west_coast_tab.html ]
   G               C                D               C                D*
e|---------------------------------|------------------------7-------|--------
B|-----------------------5-8-------|------7-10----------------108---|5//7----
G|-------4-7---------5-7-----------|--7-9---------------------------|5//7----
D|---5-7---------------------------|--------------------------------|5//7----
A|---------------------------------|--------------------------------|3//5----
E|---------------------------------|--------------------------------|--------
   1 e + a 2 e + a 3 e + a 4 e + a  1 e + a 2 e + a 3 e + a 4 e + a   
*electric guitar

   i wrote down a few things to say
   i've got a few things left to say to my best friend's grave
   and i'm hardly awake
   i pull in to a stop on the motorhighway

   silly day / i read in the trades
   they're making films about friends i'd made
   no sound / they just turned around
   next thing you know they were lost then / found 

chorus:
guitar 1:
 G       C        D       C
|/   /  //// / //|/   /  //// / //|
 G       C        D       C
|/   /  //// / //|/   /  //// / //|

guitar 3 fills:
(after 2 measures)
  G                C                D               C
e|---------------10--8-------------|5-------5-----5---3-------------||
B|---------------12--10------------|7-------7-----7---5-------------||
G|---------------------------------|--------------------------------||
D|---------------------------------|--------------------------------||
A|---------------------------------|--------------------------------||
E|---------------------------------|--------------------------------||
   1 e + a 2 e + a 3 e + a 4 e + a  1 e + a 2 e + a 3 e + a 4 e + a

   G               C                D               C
e|-------------7-5-3---------------|--------------------------------||
B|-------------------------7-5-----|3------------(5)----------------||
G|-----------7---5-4---------------|----------(7)b9---9r7---9r7-----||
D|----------------------/7---5-----|4---------------------5-----5-0-||
A|---------------------------------|--------------------------------||
E|---------------------------------|--------------------------------||
   1 e + a 2 e + a 3 e + a 4 e + a  1 e + a 2 e + a 3 e + a 4 e + a    

   goodbye west coast
   i'm going back / i'm going home
   goodbye west coast
   i'm going home

verse 3:
   i broke down in a halfway town
   news of the day is some poor girl drowned
   the papers say / she went to the bay
   the very next day they just found her that way

   sunny day / traffic waits
   a child waves to the motorcade /fade
   ah the windows down
   a pretty sound's been lost then / found (alright)

chorus 2 and ending:
   goodbye west coast
   i'm going back / i'm going home
   goodbye west coast
   i'm going home

   i'm making my way to my best friend's grave
   i'm making my way to my best friend's grave
   a child waves to the motorcade
   i'm making my way to my best friend's grave
   im making my way / well

   goodbye west coast
   i'm going home

piano arranged for guitar:
   G               C                D               C
e|-10--7---------------------------|--------------------------------|
B|---10--8-10--8-------------------|--------------------------------|
G|-----------9---7-9---7-----------|--------------------------------|
D|-------------------9---7-9-5-7---|5-------------------------------| 3x
A|-------------------------------7-|--5-7---5-----------------------|
E|---------------------------------|------7---5-7-0-3---------------|
   1 e + a 2 e + a 3 e + a 4 e + a  1 e + a 2 e + a 3 e + a 4 e + a 

   G               C                D               C                G
e|-10--7---------------------------|--------------------------------|----||
B|---10--8-10--8-------------------|--------------------------------|----||
G|-----------9---7-9---7-----------|--------------------------------|----||
D|-------------------9---7-9-5-7---|5-------------------------------|----||
A|-------------------------------7-|--------------------------------|----||
E|---------------------------------|--------------------------------|----||
   1 e + a 2 e + a 3 e + a 4 e + a  1 e + a 2 e + a 3 e + a 4 e + a
Comments