Matt Pond Pa - St Andrews Chords & Tabs

 

St Andrews Chords & Tabs

Matt Pond Pa Chords & Tabs

Version: 1 Type: Tab

St Andrews Tab

Title:  'St. Andrew's'
Artist: matt pond PA (mattpondpa.com)
Album:  I Thought You Were Sleeping
Tabbed by Jorge Díaz (j_diaz_s@yahoo.com)


 Note: Tune the 6th string from E to G.
       Tune the 5th String from A to G.


 Intro:

   E -------------|
   B -------------|
   G --0-0-0-0-0--|
1  D --5-5-5-5-5--|
   G --5-5-5-5-5--|
   G --5-5-5-5-5--|

   E ---------------------------------------|
   B ---------------------------------------|
   G --0--0--0--0--0--0--0-0-0-0-0-0-0-0-0--|
1  D --12-12-12-10-10-10-9-9-9-7-7-7-5-5-5--|
   G --12-12-12-10-10-10-9-9-9-7-7-7-5-5-5--|
   G --12-12-12-10-10-10-9-9-9-7-7-7-5-5-5--|

   E ---------------------------------|
   B ---------------------------------|
   G --0--0--0--0-0-0-0--0--0--0-0-0--|
1  D --12-12-12-5-5-5-14-14-14-5-5-5--| (x2)
   G --12-12-12-5-5-5-14-14-14-5-5-5--|
   G --12-12-12-5-5-5-14-14-14-5-5-5--|


 (0:17)

   E ---------------------------------|
   B ---------------------------------|
   G --0--0--0--0-0-0-0--0--0--0-0-0--|
1  D --12-12-12-5-5-5-14-14-14-5-5-5--| (x4)
   G --12-12-12-5-5-5-14-14-14-5-5-5--|
   G --12-12-12-5-5-5-14-14-14-5-5-5--|

   E ---------------------------------|
   B --3-(hold note)-----3b-----------|
   G ---------------------------------|
2  D ---------------------------------| (x4)
   G ---------------------------------|
   G ---------------------------------|


 (0:27)
[ Tab from: http://www.guitartabs.cc/tabs/m/matt_pond_pa/st_andrews_tab.html ]
   E --------------------------|
   B --------------------------|
   G --0-0-0-0-0----0-0-0-0-0--|
1  D --5-5-5-5-5----5-5-5-5-5--|
   G --5-5-5-5-5----5-5-5-5-5--|
   G --5-5-5-5-5----5-5-5-5-5--|
i'm telling secrets about the advantages of unawareness

   E --------------------------|
   B --------------------------|
   G --0-0-0-0-0----0-0-0-0-0--|
1  D --5-5-5-5-5----5-5-5-5-5--|
   G --5-5-5-5-5----5-5-5-5-5--|
   G --5-5-5-5-5----5-5-5-5-5--|
i hope embarrassments fade from the eyes of the ones that are sea less


(0:50)

   E --------------------------|
   B --------------------------|
   G --0-0-0-0-0----0-0-0-0-0--|
1  D --5-5-5-5-5----5-5-5-5-5--|
   G --5-5-5-5-5----5-5-5-5-5--|
   G --5-5-5-5-5----5-5-5-5-5--|

   E -7s8---8b-8b--7h8-------7s8---8b-8b--7h8-|
   B -----------------------------------------|
   G -----------------------------------------|
2  D -----------------------------------------| (x2)
   G -----------------------------------------|
   G -----------------------------------------|


(1:01)  [ Until 1:26 ]

   E --------------------------|
   B --------------------------|
   G --0-0-0-0-0----0-0-0-0-0--|
1  D --5-5-5-5-5----5-5-5-5-5--|
   G --5-5-5-5-5----5-5-5-5-5--|
   G --5-5-5-5-5----5-5-5-5-5--|

   E -8s12-8--8b-8b--7h8-----(7)-8s12-8--8b-8b--7h8-|
   B -----------------------------------------------|
   G -----------------------------------------------|
2  D -----------------------------------------------| (x5)
   G -----------------------------------------------|
   G -----------------------------------------------|

   E ---5---7s8---8---7---5------0-3---0-3--|
   B ---------------------------------------|
   G ---------------------------------------|
3  D ---------------------------------------| (x2)
   G ---------------------------------------|
   G ---------------------------------------|