Matt Pond Pa - Closer Chords & Tabs

 

Closer Chords & Tabs

Matt Pond Pa Chords & Tabs

Version: 1 Type: Bass Tab

Closer Bass Tab

Title:  'Closer'
Artist: matt pond PA
Album:  The Nature Of Maps
Tabbed by Jorge Díaz (j_diaz_s@yahoo.com)


 Intro:

G|----------------------------|
D|----------------------------|
A|-1--1--1--1--1--1--1--1-----|(x2) 
E|------------------------(1)-|  

G|----------------------------------------------------------------|
D|----------------------------------------------------------------|
A|-1--1-1--3-3-5------------------------------------------3--0--1-|
E|---------------3--3-3--1--1-1---5--5-5--3--3-3--5--5-5----------|


 Verse 1-2: (0:22)

G|---------------------------------------------------------------|
D|---------------------------------------------------------------|
A|-1--1-1--3-3-5-----------------------------------------3--0--1-|(x2)
E|---------------3--3-3--1--1-1--5--5-5--3--3-3--5--5-5----------|


 Chorus: (0:50)

G|-------------------------------------------------------|
D|-------------------------------------------------------|
A|-1-1-1-1-1-3-3-3-3-3-----------------------------------|
E|---------------------3-3-3-3-3-1-1-1-1-1-5-5-5-5-6-6-6-|

G|------------------------------|
D|------------------------------|
A|-----------------3-3-3-3--1-1-|
E|-5-5-5-5-1-1-1-1--------------|

G|--------------------------------------------|
D|--------------------------------------------|
A|-1-1-1-1-1-3-3-3-3-3-5-5-5-5----------------|(x4)
E|-----------------------------3/5-5-5-5-5/6b-|



 [ Repeat Verse part ]



 Verse 3-4: (1:47)
[ Tab from: http://www.guitartabs.cc/tabs/m/matt_pond_pa/closer_btab.html ]
G|---------------------------------------------------------------|
D|---------------------------------------------------------------|
A|-1--1-1--3-3-5-----------------------------------------3--0--1-|(x2)
E|---------------3--3-3--1--1-1--5--5-5--3--3-3--5--5-5----------|


 Chorus: (2:15)

G|-------------------------------------------------------|
D|-------------------------------------------------------|
A|-1-1-1-1-1-3-3-3-3-3-----------------------------------|
E|---------------------3-3-3-3-3-1-1-1-1-1-5-5-5-5-6-6-6-|

G|------------------------------|
D|------------------------------|
A|-----------------3-3-3-3--1-1-|
E|-5-5-5-5-1-1-1-1--------------|

G|--------------------------------------------|
D|--------------------------------------------|
A|-1-1-1-1-1-3-3-3-3-3-5-5-5-5----------------| (x4)
E|-----------------------------3/5-5-5-5-5/6b-|


 (2:58)  [ Play this twice ]

G|-----------------------------------------|
D|-----------------------------------------|
A|-1-1-1-1-1-1-1-1-3-3-3-3-----------------|
E|-------------------------3-3-3-3-1-1-1-1-|  

G|-------------------------------------|
D|-------------------------------------|
A|-------------------------3-3-3-3-3/1-|
E|-5-5-5-5-3-3-3-3-5-5-5-5-------------|



 [ Repeat Chorus ] (3:26)



 Outro: (3:55)  [ Play this twice ]

G|-------------------------------------------------|
D|-------------------------3-3-3-3-----------------|
A|-1-1-1-1-3-3-3-3-5-5-5-5---------0-0-0-0-1-1-1-1-|
E|-------------------------------------------------|

G|----------------------------|
D|----------------------------|
A|-0-0-0-0-1-1-1-1-3-3-3-3--1-|
E|----------------------------|