Matt Nixon - White Coates Chords & Tabs

 

White Coates Chords & Tabs

Matt Nixon Chords & Tabs

Version: 1 Type: Tab 0 ratings
1 star 2 stars 3 stars 4 stars 5 stars
comments

White Coates Tab

Matt Nixon
"White Coates"
Written by Matt Nixon

Tabbed by Arne Dahl


E|-----------------------------------------------------------|
H|------------3----------3-------------3----------3----------|
G|---------0----0-----0-------------0----0-----0-------------|
D|------4----------4-------------4----------4----------------|
A|---5------------------------5------------------------------|
E|-----------------------------------------------------------|

E|-----------------------------------------------------------|
H|------------3----------3-------------3---------------------|
G|---------0----0-----0-------------0------------------------|
D|------4----------4-------------4---------------------------|
A|---5------------------------5------------------------------|
E|-----------------------------------------------------------|

E|------------------------------------------0----------------|
H|------------3----------3-------------1-----1---------------|
G|---------0----0-----0-------------0----0-------------------|
D|------4----------4-------------2---------2-----------------|
A|---5------------------------3------------------------------|
E|-----------------------------------------------------------|

E|------------------------------------------0----------------|
H|------------3----------3-------------1-----1---------------|
G|---------0----0-----0-------------0----0-------------------|
D|------4----------4-------------2---------2-----------------|
A|---5------------------------3------------------------------|
E|-----------------------------------------------------------|


E|----------0-------------0---0--------3-----3----------------3--------3--3------------|
H|----------0-------------1-----1------3-------3--------------3--------3----3----------|
G|--------0------------2----------2----0---------0---------0---------2--------2--------|
D|-----2------------2------------------0----------------2----------0-------------------|
A|--2------------0-----------------------------------3-----------0---------------------|
E|----------0--------------------------3-----------------------------------------------|


 (hold tonen p? F nummer 1)
E|----------1----------1--------0------------0--0--------------0--0-0-----------------|
H|----------1----------1--------0------------1----1------------1----1-1---------------|
G|-------2-------------2--------1---------2---------2-------0----------0--------------|
D|----3-------------3---------2--------2-----------------2----------------------------|
A|--3------------3---------2--------0-----------------3-------------------------------|
E|------------------------------------------------------------------------------------|

E|---3---3---------|
H|---3-----3-------|
G|---4-------4-----|
D|---5-------------|
A|---5-------------|
E|-----------------|

 (hold tonen p? F nummer 1)
E|----------1----------1--------0----------0----0--0----0----0---0--------3-----------|
H|----------1----------1--------0----------1----1--1----1----1-----1------3-----------|
G|-------2-------------2--------1--------2------2--2----0----0-------0----4-----------|
D|----3-------------3---------2-------2---------2--2----2----2------------5-----------|
A|--3------------3---------2-------0--------------------3----3------------5-----------|
E|------------------------------------------------------------------------------------|

E|----------------------0--0----------2---2-----------------|
H|-----------1----------1----1--------3-----3---------------|
G|--------2----------0---------0------2---------------------|
D|-----2----------2-------------------0---------------------|
A|--0----------3----------------------0------0--2--3--4--5--|
E|----------------------------------------------------------|
[ Tab from: http://www.guitartabs.cc/tabs/m/matt_nixon/white_coates_tab.html ]
E|--------------------------------------------------------|
H|---------3----------3-------------3----------3----------|
G|------0----0-----0-------------0----0-----0-------------|
D|---4----------4-------------4----------4----------------|
A|-------------------------5------------------------------|
E|--------------------------------------------------------|

E|-----------------------------------------------------------|
H|------------3----------3-------------3---------------------|
G|---------0----0-----0-------------0------------------------|
D|------4----------4-------------4---------------------------|
A|---5------------------------5------------------------------|
E|-----------------------------------------------------------|

E|------------------------------------------0----------------|
H|------------3----------3-------------1-----1---------------|
G|---------0----0-----0-------------0----0-------------------|
D|------4----------4-------------2---------2-----------------|
A|---5------------------------3------------------------------|
E|-----------------------------------------------------------|

E|------------------------------------------0----------------|
H|------------3----------3-------------1-----1---------------|
G|---------0----0-----0-------------0----0-------------------|
D|------4----------4-------------2---------2-----------------|
A|---5------------------------3------------------------------|
E|-----------------------------------------------------------|


E|----------0-------------0---0--------3-----3----------------3--------3--3------------|
H|----------0-------------1-----1------3-------3--------------3--------3----3----------|
G|--------0------------2----------2----0---------0---------0---------0--------2--------|
D|-----2------------2------------------0----------------2----------2-------------------|
A|--2------------0-----------------------------------3-----------2---------------------|
E|----------0--------------------------3-----------------------------------------------|


 (hold tonen p? F nummer 1)
E|----------1----------1--------0------------0--0--------------0--0-0-----------------|
H|----------1----------1--------0------------1----1------------1----1-1---------------|
G|-------2-------------2--------1---------2---------2-------0----------0--------------|
D|----3-------------3---------2--------2-----------------2----------------------------|
A|--3------------3---------2--------0-----------------3-------------------------------|
E|------------------------------------------------------------------------------------|

E|---3---3---------|
H|---3-----3-------|
G|---4-------4-----|
D|---5-------------|
A|---5-------------|
E|-----------------|

 (hold tonen p? F nummer 1)
E|----------1----------1--------0----------0----0--0----0----0---0--------3-----------|
H|----------1----------1--------0----------1----1--1----1----1-----1------3-----------|
G|-------2-------------2--------1--------2------2--2----0----0-------0----4-----------|
D|----3-------------3---------2-------2---------2--2----2----2------------5-----------|
A|--3------------3---------2-------0--------------------3----3------------5-----------|
E|------------------------------------------------------------------------------------|

E|----------------------0--0----------2---2-----------------|
H|-----------1----------1----1--------3-----3---------------|
G|--------2----------0---------0------2---------------------|
D|-----2----------2-------------------0---------------------|
A|--0----------3----------------------0------0--2--3--4--5--|
E|----------------------------------------------------------|

E|-----------------------------------------------------------|
H|------------3----------3-------------3----------3----------|
G|---------0----0-----0-------------0----0-----0-------------|
D|------4----------4-------------4----------4----------------|
A|---5------------------------5------------------------------|
E|-----------------------------------------------------------|

E|-----------------------------------------------------------|
H|------------3----------3-------------3---------------------|
G|---------0----0-----0-------------0------------------------|
D|------4----------4-------------4---------------------------|
A|---5------------------------5------------------------------|
E|-----------------------------------------------------------|
Comments