Matt Nathanson - Wide Eyed And Full Chords & Tabs

 

Wide Eyed And Full Chords & Tabs

Matt Nathanson Chords & Tabs

Version: 1 Type: Tab 0 ratings
1 star 2 stars 3 stars 4 stars 5 stars
comments

Wide Eyed And Full Tab

http://www.mattnathanson.com/profile/index.shtml

Nathanson sings cathartic, hilarious, and innapropriate songs. He really exists!


Author/Artist: Matt Nathanson
Title: Wide Eyed And Full
Album: Ernst
Transcribed by: Greg K.
Email: kokosigp@jmu.edu
12 String
Studio: Tuned down 1/2 step


Verses "Lately I can't tell..."
-----------------------------------------3---2---0--0---2----------------------|
-8---8---8----8---8---8----8---8---8-----3---3---1--0---3---8---8---8----------|
-x---x---x----x---x---x----x---x---x-----0---2---2--2---4---x---x---x----------|
-5---5---5----5---5---5----5---5---5-----0---0---2--2---4---5---7---5----------|
-7---x---7----7---x---7----7---x---7-----2-------0--0---2---7---x---7----------|
-0---7---8----0---7---8----0---7---8-----3------------------0---5---8----------|

Verses cont.
-----------------------------------------------------0--0---2---2--2h3--2------|
-8---8---8----8---8---8----8---8---8-----8---8---8---1--0---3---3--3-3--3------|
-x---x---x----x---x---x----x---x---x-----x---x---x---2--2---4---2--2-2--2------|
-5---5---5----5---5---5----5---5---5-----5---5---5---2--2---4---0--0-0--0------|
-7---x---7----7---x---7----7---x---7-----7---x---7---0--0---2------------------|
-0---7---8----0---7---8----0---7---8-----0---7---8-----------------------------|

Prechorus "Sing me a sweet song..."
-------------------------------------------------------------------------------|
-/5----------------------------------------------------------------------------|
-/4---5---5--4---/7------------------------------------------------------------|
-/2---2---x--x---/7------------------------------------------------------------|
------3---2--2---/5------------------------------------------------------------|
----------3--3-----------------------------------------------------------------|

Chorus "We used to lie..."
-3---3---2---------------------------------------------------------------------|
-1---3---3---------------------------------------------------------------------|
-0---0---2---------------------------------------------------------------------|
-2---0---0---------------------------------------------------------------------|
-3---2-------------------------------------------------------------------------|
-----3-------------------------------------------------------------------------|
[ Tab from: http://www.guitartabs.cc/tabs/m/matt_nathanson/wide_eyed_and_full_tab.html ]
Postchorus "I'm no longer so..."
-3---2-------------------------------------------------------------------------|
-1---3-------------------------------------------------------------------------|
-0---2-------------------------------------------------------------------------|
-2---0-------------------------------------------------------------------------|
-3-----------------------------------------------------------------------------|
-------------------------------------------------------------------------------|

Bridge
-------------------------------------------------------------------------------|
-8---8---8---8-/9--------------------------------------------------------------|
-x---x---x---x--x--------------------------------------------------------------|
-5---5---5---x--x--------------------------------------------------------------|
-7---x---7---7-/9--------------------------------------------------------------|
-0---7---8---8/10--------------------------------------------------------------|

Solo
-6--7--9--9--9--9--9--9--7--6--4---6---7--9--9--9--9--9--9--7--6--4------------|
-------------------------------------------------------------------------------|
-------------------------------------------------------------------------------|
-------------------------------------------------------------------------------|
-------------------------------------------------------------------------------|
-------------------------------------------------------------------------------|

Last Chorus
-3---3---2---------------------------------------------------------------------|
-1---3---3---/8----------------------------------------------------------------|
-0---0---2----x----------------------------------------------------------------|
-2---0---0---/5----------------------------------------------------------------|
-3---2-------/7----------------------------------------------------------------|
-----3--------0----------------------------------------------------------------|

End
-3-----------------------------------------------------------------------------|
-3-----------------------------------------------------------------------------|
-0-----------------------------------------------------------------------------|
-0-----------------------------------------------------------------------------|
-2-----------------------------------------------------------------------------|
-3-----------------------------------------------------------------------------|

Hope this helps
Comments