Matt Mays - Cocaine Cowgirl Chords & Tabs

 

Cocaine Cowgirl Chords & Tabs

Matt Mays Chords & Tabs

Version: 2 Type: Tab 0 ratings
1 star 2 stars 3 stars 4 stars 5 stars
comments

Cocaine Cowgirl Tab

   
Cocaine Cowgirl
Matt Mays + El Torpedo
2005

Em (Twice, Hard)

|-3-2-0---------------------------------------3-2-0--------------------------|
|-------7-5-3-5-3-1-3-1-0---------------------------7-5-3-5-3-1-3-1-0--------|
|-------------------------5-4-2-4-2-0---2-2-0-------------------------5---2-0|
|----------------------------------------------------------------------------|
|----------------------------------------------------------------------------|
|----------------------------------------------------------------------------|

|-3-2-0---------------------------------------|
|-------7-5-3-5-3-1-3-1-0---------------------|
|-------------------------5-4-2-4-2-0---2-2-0-| x2
|---------------------------------------------|
|---------------------------------------------|
|---------------------------------------------|

        Em               C                G
Lookin' back through the chapters of your life 
          Em    C       G
Searching for a storyline 
           Em                        
'Cause the one you're livin' now's doin' nothing for you 
        C                           G 			Em
Say goodbye to your friends and the ones who love you 
       C         G
Movin' on 

|-3-2-0---------------------------------------|
|-------7-5-3-5-3-1-3-1-0---------------------|
|-------------------------5-4-2-4-2-0---2-2-0-| x2
|---------------------------------------------|
|---------------------------------------------|
|---------------------------------------------|
[ Tab from: http://www.guitartabs.cc/tabs/m/matt_mays/cocaine_cowgirl_tab_ver_2.html ]
     Em              C            G
JJ's song, it's been pushing you along 
      Em  C              G
Gypsy man on a one night stand 
Em 
Movin' through the night far from the lights 
      C                     G				Em
On an asphalt path drifting over the white line 
      C              G
Gypsy man nobody knows 

        Em
Cocaine cowgirl 
      C            G
She's out catchin' eyes 
       Em        C             G
On the other end of the desert skies 
Em
Takin' you down to the dark side of town
  C            G
A dark side of town 
Em      C                     G
Cocaine cowgirl nobody knows 
           Em            C                G
Lookin' back through the chapters of your life 
          Em    C       G
Searchin' for a storyline 
Em 
'Cause any line is a good time for you
C                               G 		       Em
Readin' what the world has been writing for you (cocaine) 
        C                G
Cocaine cowgirl nobody knows
 
Em
'Cause any line is a good time for you 
C                	     G			 Em
Livin' what the world has written for you (cocaine)
      C              G  
Gypsy man nobody knows 

Em
'Cause any line is a good time for you
C                         G 			 Em
Livin' what the world has written for you (cocaine) 
        C                 G
Cocaine cowgirl nobody knows 

|-3-2-0---------------------------------------|
|-------7-5-3-5-3-1-3-1-0---------------------|
|-------------------------5-4-2-4-2-0---2-2-0-| x4
|---------------------------------------------|
|---------------------------------------------|
|---------------------------------------------|

Em C G x4 Em
Comments