Matt Mays - Cocaine Cowgirl Chords & Tabs

 

Cocaine Cowgirl Chords & Tabs

Matt Mays Chords & Tabs

Version: 1 Type: Bass Tab 0 ratings
1 star 2 stars 3 stars 4 stars 5 stars
comments

Cocaine Cowgirl Bass Tab

   
Band: Matt Mays
Song: Cocaine Cowgirl
Tabber: 555_Maggot_666

Standard Tuning (E,A,D,G)

Intro
 (0.03)   (0.16)
G|------|---------|
D|------|---------|
A|------|---------|
E|-0~---|------3~-|
  
G|------------------------------------|
D|------------------------------------|
A|------------------33333333----------|
E|-0000000000000000----------33333333-|

G|------------------------------------|
D|------------------------------------|
A|------------------33333333-99999999-|
E|-0000000000000000-------------------|

Verse   (0.33)
G|-------------------|
D|-------------------| 
A|----------3~-------|
E|-0~-------------3~-|

G|------------------------|
D|------------------------|
A|----------3~---99999999-|
E|-0~---------------------|

G|------------------------------------|
D|------------------------------------| x2
A|------------------33333333----------|
E|-0000000000000000----------33333333-|

Interlude
G|------------------------------------|
D|------------------------------------|
A|------------------33333333----------|
E|-0000000000000000----------33333333-|         
                                                
G|------------------------------------|         
D|------------------------------------|
A|------------------33333333-99999999-|
E|-0000000000000000-------------------|
[ Tab from: http://www.guitartabs.cc/tabs/m/matt_mays/cocaine_cowgirl_btab.html ]
Verse 2 (1.16)
G|-------------------|
D|-------------------| 
A|----------3~-------|
E|-0~-------------3~-|

G|------------------------|
D|------------------------|
A|----------3~---99999999-|
E|-0~---------------------|

G|------------------------------------|
D|------------------------------------|
A|------------------33333333----------|
E|-0000000000000000----------33333333-|         
                                                
G|------------------------------------|         
D|------------------------------------|
A|------------------33333333-99999999-|
E|-0000000000000000-------------------|

Chorus  (1.45)
G|------------------------------------|
D|------------------------------------| x4
A|------------------33333333----------|
E|-0000000000000000----------33333333-|

G|----|
D|----|
A|----|
E|-3~-|

[ Pause For Guitar Part ]

Chorus  (2.29)
G|------------------------------------|
D|------------------------------------| x5
A|------------------33333333----------|
E|-0000000000000000----------33333333-|

G|------------------------------------|         
D|------------------------------------|
A|------------------33333333-99999999-|
E|-0000000000000000-------------------|

Outro/Guitar Solo
G|------------------------------------|
D|------------------------------------| x8
A|------------------33333333----------|
E|-0000000000000000----------33333333-|

G|-----|
D|-----|
A|-----|
E|-0~--|

Awesome song!! I'm pretty sure it's correct..
Comments