Matt Costa - Sunshine Chords & Tabs

 

Sunshine Chords & Tabs

Matt Costa Chords & Tabs

Version: 1 Type: Tab 0 ratings
1 star 2 stars 3 stars 4 stars 5 stars
comments

Sunshine Tab

   
Dan E.
Dropped D
Capo 1, Notes relative to capo
pick the low e string before you strum the chourd occasionaly

	  D    A    G     B
    e ----2----0-----------------|
    B ----3----0-----------------|
    G ----2----2----------4------|
    D ----0----2----5-----4------|
    A ---------0----5-----2------|
    E -(0)----------5------------|

Intro            D
e -------------------|
B -------------------|
G -4p2---------------|
D -----3h4-0---------|
A -------------------|
E -------------------|

 D    A       G             A
Sunshine I'd really like to tell you oh my

 D    A       B             G
Sunshine even though your skys are

 D               A         B             G
Grey your drying up my bed how can I get any rest

 D         A         D
sha la la la la la la la la

 D        A   G                A
And some day you will get the best of me

 D   A             B        G
Some day probably when I'm old and grey

 D        A            B               G
Im lying in my bed and I will soon be put to rest now

 D         A         B        A
sha la la la la la la la la

Solo-
[ Tab from: http://www.guitartabs.cc/tabs/m/matt_costa/sunshine_tab.html ]
e ----------5----5-----5-----5----5-5h7-5-----------------------------------|
B -------5h7--5h7---5h7---5h7--5h7--------5h7-5-----------------------------|
G ---------------------------------------------7----------------------------|
D --------------------------------------------------------------------------|
A -0-2-5--------------------------------------------------------------------|
E --------------------------------------------------------------------------|


e ------5----5-----5-----5----5-5h7-5--10-7-5--------5-5------------|
B ---5h7--5h7---5h7---5h7--5h7----------------8--5/7-----5----------|
G ------------------------------------------------------------------|
D ------------------------------------------------------------------|
A ------------------------------------------------------------------|
E ------------------------------------------------------------------|


e ---5h7-5------------5-----5-----------------5-5-------------------|
B ---------5h7p5---5/7--5/7---5-7-5h7p5---5/7-----------------------|
G --------------7-----------------------7---------------------------|
D ------------------------------------------------------------------|
A ------------------------------------------------------------------|
E ------------------------------------------------------------------|

 D    A       G             A
Sunshine I'd really like to tell you oh my

 D    A       B             G
Sunshine even though your skys are

 D               A         B             G
Blue your drying up my bed how can I get any rest

 D         A         D
sha la la la la la la la la

 D        A   G                A
And some day you will get the best of me

 D   A             B        G
Some day probably when I'm old and grey

 D        A            B               G
Im lying in my bed and I will soon be put to rest now
Comments