Matt Costa - Behind The Moon Chords & Tabs

 

Behind The Moon Chords & Tabs

Matt Costa Chords & Tabs

Version: 4 Type: Tab 0 ratings
1 star 2 stars 3 stars 4 stars 5 stars
comments

Behind The Moon Tab

   
-----------------------------------------------------------------------------
     BEHIND THE MOON - Matt Costa
-----------------------------------------------------------------------------
Tabbed by: Luke Rounda
Email: luke@notus.com	

Standard Tuning E A D G B E

Pretty simple but great song by a great new artist. I've simply corrected the
verse riff arpeggio (it follows Matt's vocals, basically) and added the solo.

The opening lick is E with a bent G note in it. (See other tabs.)

 corrected verse riff
e ------------------------------------------------------------------|
B ------------------------------------------------------------------|
G ------------------------------------------------------------------|
D ---------------------------2--------------------------------------|
A -------------------0---2------2--0---------------------2--0-------|
E ---0---2-----3------------------------3----0--3----0---------3--2-|
     I would shine just like a million suns if you would be my baby
[ Tab from: http://www.guitartabs.cc/tabs/m/matt_costa/behind_the_moon_tab_ver_4.html ]
C           G       D               Em
Now here I come to dance around the sun
C        Em            D               Em
I've been oh so blue stuck behind the moon
C          G   D             Em
Now let me in back where we begin
C           Em                D
And let me hold you like the way
 (intro lick)
I used to do

 solo
e -/8-8-7-5----------------/8-8-7-10-8-7--5-5-5h7p5-----------------|
B ----------8---------------------------------------8---------------|
G -----------/7-7-7h9p7-9~~~----------------------------------------| Play 2x
D ------------------------------------------------------------------|
A ------------------------------------------------------------------|
E ------------------------------------------------------------------|
     
e --/8-8-7-10-8-7~~~-5~~~~-3--5--3----------------------------------|
B ----------------------------------5~~~~---------------------------|
G ------------------------------------------------------------------|
D ------------------------------------------------------------------|
A ------------------------------------------------------------------|
E ------------------------------------------------------------------|

That's it! Now go play this one around the campfire, kids.
Comments