Matt Costa - Behind The Moon Chords & Tabs

 

Behind The Moon Chords & Tabs

Matt Costa Chords & Tabs

Version: 3 Type: Tab 0 ratings
1 star 2 stars 3 stars 4 stars 5 stars
comments

Behind The Moon Tab

   
Artist: Matt Costa
Song: Behind the Moon
Album: Songs We Sing
Tabbed by: Tyler

This is an awesome song, as is the entire album by Matt Costa, unfortunately there's
not many tabs for his music so I've taken matters into my own hands. Sorry if there's
any mistakes.

h= hammer-on
s= slide
b= bend

Intro
        
e --------------------------------|
B --------------------------------|
G --------------------------------|  4x
D ------2-2-2-2-2-----------------|
A ------2-2-2-2-2-----------------|
E ---0--0-0-0-0-0---3b--0--3b--0--|

Verse
e ------------------------------------------------------------------|
B ------------------------------------------------------------------|
G ------------------------------------------------------------------|
D ---------------------------2--0-----------------------------------|
A -------------------0---2---------2----0-------0--------2--0-------|
E ---0---2-----3-----------------------------3-------3---------3--0-|
     

Bridge
e ------0-0-0-0-0------------------|
B ------0-0-0-0-0------------------|
G ------0-0-0-0-0------------------|
D ------2-2-2-2-2------------------|
A ------2-2-2-2-2------------------|
E ---0--0-0-0-0-0---3b--0--3b--0---|
[ Tab from: http://www.guitartabs.cc/tabs/m/matt_costa/behind_the_moon_tab_ver_3.html ]
e -----------------------------------------------------------|
B -----------------------------------------------------------|
G -----------------------------------------------------------|
D -----------------------2--0--------------------------------| 2x
A --------------0---2----------2--0----0-----2---0-----------|
E ---0---2--3-----------------------3----3-----------3--0----|
    
Solo
e -----------------------------------------------------------|
B -13-13-12---10---8----3-3-3h5-3----------------------------|
G --------------------------------9--------------------------|
D -----------------------------------------------------------|
A -----------------------------------------------------------|
E -----------------------------------------------------------|

e -----------------------------------------------------------|
B -13-13-12---12s15---13--12----10-10-10h12--8---------------|
G -----------------------------------------------------------|
D -----------------------------------------------------------|
A -----------------------------------------------------------|
E -----------------------------------------------------------|

e -----------------------------------------------------------|
B -13-13-12---8-------3-3-3h5-3------------------------------|
G --------------------------------9--------------------------|
D -----------------------------------------------------------|
A -----------------------------------------------------------|
E -----------------------------------------------------------|

e -----------------------------------------------------------|
B -13-13-12---12s15---13--12----8--10------------------------|
G -----------------------------------------------------------|
D -----------------------------------------------------------|
A -----------------------------------------------------------|
E -----------------------------------------------------------|



Chorus
 C           G       D               Em
Now here I come to dance around the sun
 C       G            D               Em
Ive been oh so blue stuck behind the moon
 C          G   D             Em
Now let me in back where we begin
 C           G                D
And let me hold you like the way

I used to do
(Use Intro lick)
Comments