Matt Costa - Behind The Moon Chords & Tabs

 

Behind The Moon Chords & Tabs

Matt Costa Chords & Tabs

Version: 2 Type: Tab 0 ratings
1 star 2 stars 3 stars 4 stars 5 stars
comments

Behind The Moon Tab

Hey guys this is a pretty easy song, you just have to get the hang of it.
If you play it with the song it is 10 times easier to learn.


|---0-0-0-0---0---0-|
|---0-0-0-0---0---0-|
|---0-0-0-0---0---0-|
|---2-2-2-2---2---2-| x4
|---2-2-2-2---2---2-|
|-0-0-0-0-0-3-0-3-0-|


|------------------------------------------------------------------------|
|------------------------------------------------------------------------|
|------------------------------------------------------------------------|
|------------------------------------------------------------------------|
|------------------------------------------------------------------------|
|-0---2-----3----5----7/10---7----5--3----0--3----0------7/5------3--2--0|
  I would shine just like a million suns  if you would love me  b-a-b-y ... 

|---0-0-0-0---0---0-|
|---0-0-0-0---0---0-|
|---0-0-0-0---0---0-|
|---2-2-2-2---2---2-| x2
|---2-2-2-2---2---2-|
|-0-0-0-0-0-3-0-3-0-|

|------------------------------------------------------------------------|
|------------------------------------------------------------------------|
|------------------------------------------------------------------------|
|------------------------------------------------------------------------|
|------------------------------------------------------------------------|
|-0---2-----3----5----7/10---7----5--3----0--3----0------7/5------3--2--0|
I'll be     in ..............


|---0-0-0-0---0---0-|
|---0-0-0-0---0---0-|
|---0-0-0-0---0---0-|
|---2-2-2-2---2---2-| x2
|---2-2-2-2---2---2-|
|-0-0-0-0-0-3-0-3-0-|

strum with the song
|-------------------------------------------------|
|-------------------------------------------------|
|-------------------------------------------------|
|--10----5----12----9---10---10---9----7---9---10-|
|--10----5----12----9---10---10---9----7---9---10-|
|--8-----3----10----7---8----8----7----5---7---8--|
so here i come.....        ive been.....


|-----------------------------------------|
|-----------------------------------------|
|-----------------------------------------|
|--10----5----12----9---10---10---9----7--|
|--10----5----12----9---10---10---9----7--|
|--8-----3----10----7---8----8----7----5--|


|---0-0-0-0---0---0-|
|---0-0-0-0---0---0-|
|---0-0-0-0---0---0-|
|---2-2-2-2---2---2-| x4
|---2-2-2-2---2---2-|
|-0-0-0-0-0-3-0-3-0-|

[ Tab from: http://www.guitartabs.cc/tabs/m/matt_costa/behind_the_moon_tab_ver_2.html ]
it pretty much repeats itself over untill the solos 

 now let me hold u like the way i used to dooooooo.......


|---0-0-0-0---0---0-|
|---0-0-0-0---0---0-|
|---0-0-0-0---0---0-|
|---2-2-2-2---2---2-| xmany times
|---2-2-2-2---2---2-|
|-0-0-0-0-0-3-0-3-0-|



|------------------------------------------------------------------------|
|------------------------------------------------------------------------|
|------------------------------------------------------------------------|
|------------------------------------------------------------------------|
|------------------------------------------------------------------------|
|-0---2-----3----5----7/10---7----5--3----0--3----0------7/5------3--2--0|


|---0-0-0-0---0---0-|
|---0-0-0-0---0---0-|
|---0-0-0-0---0---0-|
|---2-2-2-2---2---2-| x2
|---2-2-2-2---2---2-|
|-0-0-0-0-0-3-0-3-0-|


|-------------------------------------------------|
|-------------------------------------------------|
|-------------------------------------------------|
|-------------------------------------------------|
|-------------------------------------------------|
|-0-2--3--5--7/10--7--5--3--0--3--0---7/5--3--2--0|



|---0-0-0-0---0---0-|
|---0-0-0-0---0---0-|
|---0-0-0-0---0---0-|
|---2-2-2-2---2---2-| x2
|---2-2-2-2---2---2-|
|-0-0-0-0-0-3-0-3-0-|



matts solo


|-------------------------------------------------------------------|
|-13-13--12--8--3-3--3/5--3/5-----13-13--15--13--12--10-10-10/12--7-|
|-------------------------------------------------------------------|
|-------------------------------------------------------------------|
|-------------------------------------------------------------------|
|-------------------------------------------------------------------|



|-------------------------------------------------------------------|
|-13-13--12--8--3-3--3/5--3/5-----13-13--15--13--12--10--8/10-8--5--|
|-------------------------------------------------------------------|
|-------------------------------------------------------------------|
|-------------------------------------------------------------------|
|-------------------------------------------------------------------|


and then its exactly the same as the begging except for the last 3 chords u play 3 times. 



enjoy this great song


if you catch any mistakes just email me and ill fix them. aboghraty@yahoo.com
Comments