Matt Costa - Behind The Moon Chords & Tabs

 

Behind The Moon Chords & Tabs

Matt Costa Chords & Tabs

Version: 1 Type: Tab 0 ratings
1 star 2 stars 3 stars 4 stars 5 stars
comments

Behind The Moon Tab

   
I saw Matt at the Gorge opening for Jack Johnson.  He kicks ass so I bought his CD and I
think this tab is pretty accurate.  If you hear the song it will help with the timing.

Intro:
        d d u d u
e --------------------------------|
B --------------------------------|
G --------------------------------|  (4x)
D ------2-2-2-2-2-----------------|
A ------2-2-2-2-2-----------------|
E ---0--0-0-0-0-0---3b--0--3b--0--|

Verse:
e ------------------------------------------------------------------|
B ------------------------------------------------------------------|
G ------------------------------------------------------------------|
D ---------------------------2--0-----------------------------------|
A -------------------0---2---------2----0-------0--------2--0-------|
E ---0---2-----3-----------------------------3-------3---------3--0-|
     I would shine just like a million suns if you would be my baby

Bridge:
e ------0-0-0-0-0------------------|
B ------0-0-0-0-0------------------|
G ------0-0-0-0-0------------------|
D ------2-2-2-2-2------------------|
A ------2-2-2-2-2------------------|
E ---0--0-0-0-0-0---3b--0--3b--0---|
[ Tab from: http://www.guitartabs.cc/tabs/m/matt_costa/behind_the_moon_tab.html ]
e -----------------------------------------------------------|
B -----------------------------------------------------------|
G -----------------------------------------------------------|
D -----------------------2--0--------------------------------|
A --------------0---2----------2--0----0-----2---0-----------|
E ---0---2--3-----------------------3----3-----------3--0----|
    Ill be in your life again so baby, baby just say maybe

Bridge: (2x)

Chorus:
 C           G       d               Em
Now here I come to dance around the sun
 C       G            d               Em
Ive been oh so blue stuck behind the moon
 C          G   d             Em
Now let me in back where we begin
 C           G                d
And let me hold you like the way

I used to do
(On "do" go to the intro lick and when you bend G, the lyrics go "oooh oooh")

Verse:
Bridge: (2x)
Verse:
Bridge: (2x)
Chorus:

The rest of the song pretty much repeats except for one part where he strums C G and Em. 
If you listen to the song it isn't too hard to pick up.  That's it, hope this helps.
Comments