Matt Costa - Ballad Of Miss Kate Black Chords & Tabs

 

Ballad Of Miss Kate Black Chords & Tabs

Matt Costa Chords & Tabs

Version: 2 Type: Tab 0 ratings
1 star 2 stars 3 stars 4 stars 5 stars
comments

Ballad Of Miss Kate Black Tab

This is another great matt costa song. the intro/solo is almost impossible to tab but i
think i got pretty close to it. the rest of the song is pretty simple and easy to learn
so enjoy.


intro
|----------------------------------------------|
|-------3---11--8--6--8---13-11--8--6--8--15---|
|-0/1/3-3--------------------------------------|
|----------------------------------------------|
|----------------------------------------------|
|----------------------------------------------|

|--------------------------------|
|-----3--------------------------|
|-0/1---(SLIDE=")-7"3-0---5--3---|
|--------------------------------| repeat from beggining
|--------------------------------| 
|--------------------------------|



|------------------------------------------------|
|------------------------------------------------|
|------------------------------------------------|
|--5-----------------------10--------------------| repeat
|--5-----------------------10--------------------|          
|--3-----------------------8---------------------|
You gave me your world.....black sea in black

[ Tab from: http://www.guitartabs.cc/tabs/m/matt_costa/ballad_of_miss_kate_black_tab_ver_2.html ]
|-------------------|
|-------------------|
|-------------------|
|-5----8---10-------|
|-5----8---10-------| repeats a couple times
|-3----6---8--------|
 never looking back......


|------------------------------------------------|
|------------------------------------------------|
|------------------------------------------------|
|--5-----------------------10--------------------| repeats
|--5-----------------------10--------------------|          
|--3-----------------------8---------------------|
played me for a fool.........

everyone once in a while it'll do this
|------------------------------------|
|------------------------------------|
|------------------------------------|
|-5-----8----------------------------|
|-5-----8----------------------------|
|-3-----6----------------------------|
i.e.= im on my back, on my back

|-------------------|
|-------------------|
|-------------------|
|-5----8---10-------|
|-5----8---10-------| repeats a couple times
|-3----6---8--------|
 never looking back......


|------------------------------------------------|
|------------------------------------------------|
|------------------------------------------------|
|--5-----------------------10--------------------| repeat
|--5-----------------------10--------------------|          
|--3-----------------------8---------------------|

then it goes to the solo(intro)


from there its pretty much repeating itself
Comments